Adema - Unstable Chords & Tabs

 

Unstable Chords & Tabs

Adema Chords & Tabs

Version: 3 Type: Tab 0 ratings
1 star 2 stars 3 stars 4 stars 5 stars
comments

Unstable Tab

   
Band:       Adema
Song:       Unstable
Album:      Unstable
Tabbed by:  Lowell Gerry
Email:      Lowell.Gerry@k.ro
Tuning:     A E A D G B E ("drop A" on 7-string guitar)


INTRO


RIFF 1
heavy distortion
e ----------------------------------------------|
B ----------------------------------------------|
G ----------------------------------------------|
D ---------------------------6-6/88888----------|
A 3-3---3-3-3-------3-3------6-6/888881-1/22222-|
E 3-3---3-3-3-------3-3------4-4/666661-1/22222-|
A 3-3---3-3-3/66666\3-3/66666---------1-1/22222-|

cont'
e ----------------------------------------------|
B ----------------------------------------------|
G ----------------------------------------------|
D ---------------------------6-6/88888----------|
A 3-3---3-3-3-------3-3------6-6/888881-1-------|
E 3-3---3-3-3-------3-3------4-4/666661-1-------|
A 3-3---3-3-3/66666\3-3/66666---------1-1-------|


VERSE1
some electric/industrial noise effect fill

BASS Line


CHORUS (RIFF 2)
heavy distortion
e --------------------------------------------------------|
B --------------------------------------------------------|
G --------------------------------------------------------|
D --------------------------------------------------------|
A 3-3--2/3-3--2/3-3--3/4-4--4\3-3--2/3-3--2/33--3\1-1--1--|
E 3-3--2/3-3--2/3-3--3/4-4--4\3-3--2/3-3--2/33--3\1-1--1--|
A 3-3--2/3-3--2/3-3--3/4-4--4\3-3--2/3-3--2/33--3\1-1--1--|
[ Tab from: http://www.guitartabs.cc/tabs/a/adema/unstable_tab_ver_3.html ]
cont'
e -------------------------------------------------------|
B -------------------------------------------------------|
G -------------------------------------------------------|
D -------------------------------------------------------|
A 3-3--2/3-3--2/3-3--3/8-8--8\3-3--2/3-3--2/33--3\1-1----|
E 3-3--2/3-3--2/3-3--3/8-8--8\3-3--2/3-3--2/33--3\1-1----|
A 3-3--2/3-3--2/3-3--3/8-8--8\3-3--2/3-3--2/33--3\1-1----|

repeat as necessary

LYRICS

I wanted to know
Who you really are
I needed the chance
To stitch up my scars

I'm closer to you
Than I was in the start
So dive right in
And tear me apart

I'm trapped
And we can't get along
I thought that I was strong
We are so unstable

And then
I'm strung out from your touch
But I won't give you up
We are so unstable

I wanted to learn
About the dark side of you
You bring me down
Like a bottle of pills
I hate the way
That you make me feel
I keep coming back
I never get you

I'm trapped
And we can't get along
I thought that I was strong
We are so unstable

And then
I'm strung out from your touch
But I won't give you up
We are so unstable

You're so unstable (x2)
We're so unstable (x2)

I'm trapped
And we can't get along
I thought that I was strong
We are so unstable

And then
I'm strung out from your touch
But I won't give you up
We are so unstable

I'm trapped
And we can't get along
I thought that I was strong
We are so unstable

And then
I'm strung out from your touch
But I won't give you up
We are so unstable

You're so unstable
I'm so unstable
We're so unstable
I'm so unstable

------------------------------

I'm pretty sure about this tab.  I played along with the song and it sounds
dead-on. I that I should go ahead and tab it out myself because it's a great
song and the other tabs were hard to find. The ones I did find were WAY off
and it appeared that not a lot of effort was put into them. The first part
of the intro wasn't tabbed, but I'm sure you mess around and figure it out
for guitar pretty close using a hammer-on technique. So enjoy!

------------------------------
Comments