Adema - Unstable Chords & Tabs

 

Unstable Chords & Tabs

Adema Chords & Tabs

Version: 2 Type: Tab 0 ratings
1 star 2 stars 3 stars 4 stars 5 stars
comments

Unstable Tab

 ADEMA

"UNSTABLE"


INTRO
---------------------------------------------------
---------------------------------------------------
-----------------------------------------------8---
-5-5---5-5-5---8-8-8-8-8\5---5-5-5---8-8-8-8-8-6---
-3-3---3-3-3---6-6-6-6-6\3---3-3-3---6-6-6-6-6-----
---------------------------------------------------

-------------------------------------------------
------------------------------------------------- PLAY 
--8-8-8---10-10-10-10---------------------------- 2X
--6-6-6---8--8--8--8---3-3---3-3-3---4-4-4-4-3---
-----------------------1-1---1-1-1---2-2-2-2-1---
-------------------------------------------------
[ Tab from: http://www.guitartabs.cc/tabs/a/adema/unstable_tab_ver_2.html ]
VERSE
--------------
--------------
-------------- REPEAT AS NECESSARY
----6--5-5----
----4--3-3----
--------------

1ST PRE-CHORUS
----------------
----------------
----------------
----5---3-------
----3---1---2---
------------0---

 CHORUS
----------------------------------------------------------------------------
---------------------------------------------------------------------- PLAY-
------------------------------------------------------------------------- 2X
--5-5---55-5-5---55-5-5---55-6-6---66-5-5---55-5-5---55-5-5---55------------
--3-3---33-3-3---33-3-3---33-4-4---44-3-3---33-3-3---33-3-3---33-4-4---44---
-----------------------------------------------------------------2-2---22---

2ND PRE-CHORUS
------------------------
------------------------
------------------------
----5---3-----------4---
----3---1---6---3---2---
------------4---1-------

REPEAT CHORUS
Comments