Adema - The Way You Like It Chords & Tabs

 

The Way You Like It Chords & Tabs

Adema Chords & Tabs

Version: 6 Type: Tab 0 ratings
1 star 2 stars 3 stars 4 stars 5 stars
comments

The Way You Like It Tab

   
#----------------------------------PLEASE NOTE---------------------------------#
#This file is the author's own work and represents their interpretation of the #
#song. You may only use this file for private study, scholarship, or research. #
#------------------------------------------------------------------------------##

                               THE WAY YOU LIKE IT
                              As recorded by Adema
                           (From the 2001 Album ADEMA)

Words and Music by Adema


Gtr I (Db Ab Db Gb Bb Eb) - 'Guitar 1'
Gtr II (Db Ab Db Gb Bb Eb) - 'Guitar 2'
Gtr III (Db Ab Db Gb Bb Eb) - 'Guitar 3'
Gtr IV (Db Ab Db Gb Bb Eb) - 'Guitar 4'
Gtr V (Db Ab Db Gb Bb Eb) - 'Synth'

 Intro
  Q=163
  B5
 4/4
  Gtr I
  E E E E E E E E   E E   E  E   E  E   E  E
|-----------------|--------------------------|
|-----------------|--------------------------|
|-----------------|--------------------------|
|-9-9-9-9-9-9-9-9-|-9-9---9--9---9--9---9--9-|
|-9-9-9-9-9-9-9-9-|-9-9---9--9---9--9---9--9-|
|-9-9-9-9-9-9-9-9-|-9-9---9--9---9--9---9--9-|
|
| Gtr II
| W                 Q     Q      Q      Q
|-----------------|-----[17]---[15]---[14]---|
|-----------------|--------------------------|
|-----------------|--------------------------|
|-----------------|--------------------------|
|-----------------|--------------------------|
|-----------------|--------------------------|


    E  E E E E E E E     E  E E E   E  E E E
|--------------------|-----------------------|
|--------------------|-----------------------|
|--------------------|-----------------------|
|---9--9-9-9-9-9-9-9-|---9--9-9-9---9--9-9-9-|
|---9--9-9-9-9-9-9-9-|---9--9-9-9---9--9-9-9-|
|---9--9-9-9-9-9-9-9-|---9--9-9-9---9--9-9-9-|
|
|                                   >
|  +W                   +H         +H
|-(14)---------------|-(14)-------(14)-------|
|--------------------|-----------------------|
|--------------------|-----------------------|
|--------------------|-----------------------|
|--------------------|-----------------------|
|--------------------|-----------------------|


  E E E E E E E E   E E   E  E   E  E   E  E
|-----------------|--------------------------|
|-----------------|--------------------------|
|-----------------|--------------------------|
|-9-9-9-9-9-9-9-9-|-9-9---9--9---9--9---9--9-|
|-9-9-9-9-9-9-9-9-|-9-9---9--9---9--9---9--9-|
|-9-9-9-9-9-9-9-9-|-9-9---9--9---9--9---9--9-|
|
| W                 Q     Q      Q      Q
|-----------------|-----[17]---[15]---[14]---|
|-----------------|--------------------------|
|-----------------|--------------------------|
|-----------------|--------------------------|
|-----------------|--------------------------|
|-----------------|--------------------------|


    E  E E E E E E E     E  E E E   E  E E E
|--------------------|------------------------|
|--------------------|------------------------|
|--------------------|------------------------|
|---9--9-9-9-9-9-9-9-|---9--9-9-9---9--9-9-9--|
|---9--9-9-9-9-9-9-9-|---9--9-9-9---9--9-9-9--|
|---9--9-9-9-9-9-9-9-|---9--9-9-9---9--9-9-9--|
|
|                                   >
|  +W                   +H         +H
|-(14)---------------|-(14)-------(14)--------|
|--------------------|------------------------|
|--------------------|------------------------|
|--------------------|------------------------|
|--------------------|------------------------|
|--------------------|------------------------|


    Gtrs I, III
    E Q  E E E E E   +E  E   Q     H
||-----------------|-------------------------|
||o----------------|-------------------------|
||-----------------|-------------------------|
||--9-9--9-9-9-9-9-|-(9)-9---9-----9---------|
||o-9-9--9-9-9-9-9-|-(9)-9---9-----9---------|
||--9-9--9-9-9-9-9-|-(9)-9---9-----9---------|
|
|   W                 Q      Q     Q     Q
||-----------------|-------[17]--[15]--[14]--|
||o----------------|-------------------------|
||-----------------|-------------------------|
||-----------------|-------------------------|
||o----------------|-------------------------|
||-----------------|-------------------------|


  G5                     F#5              D5
    E   E  E  E  E  E  E  E    +E   Q   E   Q   Q
|---------------------------|-----------------------||
|---------------------------|----------------------o||
|---------12-------12-12-11-|-(11)-11--11---7---7---||
|------12----12----12-12-11-|-(11)-11--11---7---7---||
|--10-----------10-10-10--9-|--(9)--9---9---5---5--o||
|---------------------------|-----------------------||
|
|                                           >
|  +W                          +H          +H
|-(14)----------------------|-(14)--------(14)------||
|---------------------------|----------------------o||
|---------------------------|-----------------------||
|---------------------------|-----------------------||
|---------------------------|----------------------o||
|---------------------------|-----------------------||


   Verse
    $
    B5                                                     A5D5
    E q  E q  E E   E E q  H     3x E q  E q  E E   E E Q  E  E  Q
||----------------|--------------||---------------|-----------------|
||o---------------|-------------o||---------------|-----------------|
||----------------|--------------||---------------|-----------------|
||--9-9--9-9--9-9-|---9-9--------||-9-9--9-9--9-9-|---9-7--7s12-12--|
||o-9-9--9-9--9-9-|---9-9-------o||-9-9--9-9--9-9-|---9-7--7s12-12--|
||--9-9--9-9--9-9-|---9-9--------||-9-9--9-9--9-9-|---9-7--7s12-12--|


                                                    To Coda
    B5
    E q  E q  E E   E E q  H      E q  E q  E E   E E q  H
||----------------|-------------|---------------|--------------||
||o---------------|-------------|---------------|-------------o||
||----------------|-------------|---------------|--------------||
||--9-9--9-9--9-9-|---9-9-------|-9-9--9-9--9-9-|---9-9--------||
||o-9-9--9-9--9-9-|---9-9-------|-9-9--9-9--9-9-|---9-9-------o||
||--9-9--9-9--9-9-|---9-9-------|-9-9--9-9--9-9-|---9-9--------||


   Chorus
                                                              D.S. al Coda
    B5                               G5                     F#5    D5
    E E q  E E E E   +E  E Q  H       Q   Q   Q   E.  +S    Q   Q   E E E E  4x
||-----------------|---------------|----------------------|------------------||
||o----------------|---------------|----------------------|-----------------o||
||-----------------|---------------|---------12-----------|--------/7-7-7-7--||
||--9-9-9--9-9-9-9-|-(9)-9-9--9----|-----12------12--(12)-|----11--/7-7-7-7--||
||o-9-9-9--9-9-9-9-|-(9)-9-9--9----|-10-------------------|-9------/5-5-5-5-o||
||--9-9-9--9-9-9-9-|-(9)-9-9--9----|----------------------|------------------||


   Chorus
    &
    B5                               G5                     F#5    D5
    E E q  E E E E   +E  E Q  H       Q   Q   Q   E.  +S    Q   Q   E E E E
||-----------------|---------------|----------------------|------------------||
||o----------------|---------------|----------------------|-----------------o||
||-----------------|---------------|---------12-----------|--------/7-7-7-7--||
||--9-9-9--9-9-9-9-|-(9)-9-9--9----|-----12------12--(12)-|----11--/7-7-7-7--||
||o-9-9-9--9-9-9-9-|-(9)-9-9--9----|-10-------------------|-9------/5-5-5-5-o||
||--9-9-9--9-9-9-9-|-(9)-9-9--9----|----------------------|------------------||


  B5
  E E q  E E E E   +E  E   Q     H
|----------------|-------------------------|
|----------------|-------------------------|
|----------------|-------------------------|
|-9-9-9--9-9-9-9-|-(9)-9---9-----9---------|
|-9-9-9--9-9-9-9-|-(9)-9---9-----9---------|
|-9-9-9--9-9-9-9-|-(9)-9---9-----9---------|
|
| Gtr II
| W                 Q      Q     Q     Q
|----------------|-------[17]--[15]--[14]--|
|----------------|-------------------------|
|----------------|-------------------------|
|----------------|-------------------------|
|----------------|-------------------------|
|----------------|-------------------------|


  G5                       F#5       D5
    Q    Q   Q   E.  +S      Q    Q    E  E E E
|------------------------|-----------------------|
|------------------------|-----------------------|
|-----------12-----------|------------/7--7-7-7--|
|-------12------12--(12)-|-------11---/7--7-7-7--|
|--10--------------------|---9--------/5--5-5-5--|
|------------------------|-----------------------|
|
|                                      >
|  +W                       +H        +H
|-(14)-------------------|-(14)------(14)--------|
|------------------------|-----------------------|
|------------------------|-----------------------|
|------------------------|-----------------------|
|------------------------|-----------------------|
|------------------------|-----------------------|


  B5
  E E q  E E E E   +E  E   Q     H
|----------------|-------------------------|
|----------------|-------------------------|
|----------------|-------------------------|
|-9-9-9--9-9-9-9-|-(9)-9---9-----9---------|
|-9-9-9--9-9-9-9-|-(9)-9---9-----9---------|
|-9-9-9--9-9-9-9-|-(9)-9---9-----9---------|
|
| Gtr II
| W                 Q      Q     Q     Q
|----------------|-------[17]--[15]--[14]--|
|----------------|-------------------------|
|----------------|-------------------------|
|----------------|-------------------------|
|----------------|-------------------------|
|----------------|-------------------------|


  G5                       F#5        D5
    Q    Q   Q   E.  +S      Q     Q   E E E E
|------------------------|----------------------||
|------------------------|----------------------||
|-----------12-----------|------------/7-7-7-7--||
|-------12------12--(12)-|--------11--/7-7-7-7--||
|--10--------------------|---9--------/5-5-5-5--||
|------------------------|----------------------||
|
|  +W                       +W
|-(14)-------------------|-(14)\----------------||
|------------------------|----------------------||
|------------------------|----------------------||
|------------------------|----------------------||
|------------------------|----------------------||
|------------------------|----------------------||


 Interlude      Verse
                 B5
  Wx8            E q  E q  E E   E E q  H
|------------||----------------|-------------|
|------------||o---------------|-------------|
|------------||----------------|-------------|
|------------||--9-9--9-9--9-9-|---9-9-------|
|------------||o-9-9--9-9--9-9-|---9-9-------|
|------------||--9-9--9-9--9-9-|---9-9-------|


                         A5D5
  E q  E q  E E   E E Q  E  E  Q
|---------------|--------------------||
|---------------|-------------------o||
|---------------|--------------------||
|-9-9--9-9--9-9-|---9-9--7s12-12-----||
|-9-9--9-9--9-9-|---9-9--7s12-12----o||
|-9-9--9-9--9-9-|---9-9--7s12-12-----||


  B5
  E q    E  q  E E     E  E q    H
|------------------|-----------------------|
|------------------|-----------------------|
|------------------|-----------------------|
|-9-9----9--9--9-9-|------9-9--------------|
|-9-9----9--9--9-9-|------9-9--------------|
|-9-9----9--9--9-9-|------9-9--------------|
|
| Gtr IV             Gtr II
| Q    Q    Q  Q       H         Q     Q
|------------------|-[14]------[15]--[14]--|
|------------------|-----------------------|
|-----12---11--9---|-----------------------|
|------------------|-----------------------|
|------------------|-----------------------|
|------------------|-----------------------|


                                   A5D5
     E   q  E q  E E      E   E Q  E  E  Q
|--------------------|-----------------------|
|--------------------|-----------------------|
|--------------------|-----------------------|
|----9---9--9-9--9-9-|--------9-9--7s12-12---|
|----9---9--9-9--9-9-|--------9-9--7s12-12---|
|----9---9--9-9--9-9-|--------9-9--7s12-12---|
|
|   +W                   +W
|-([14])-------------|-([14])----------------|
|--------------------|-----------------------|
|--------------------|-----------------------|
|--------------------|-----------------------|
|--------------------|-----------------------|
|--------------------|-----------------------|


  B5
  E q    E  q  E E     E  E q    H
|------------------|-----------------------|
|------------------|-----------------------|
|------------------|-----------------------|
|-9-9----9--9--9-9-|------9-9--------------|
|-9-9----9--9--9-9-|------9-9--------------|
|-9-9----9--9--9-9-|------9-9--------------|
|
| Gtr IV             Gtr II
| Q    Q    Q  Q       H         Q     Q
|------------------|-[14]------[15]--[14]--|
|------------------|-----------------------|
|-----12---11--9---|-----------------------|
|------------------|-----------------------|
|------------------|-----------------------|
|------------------|-----------------------|

[ Tab from: http://www.guitartabs.cc/tabs/a/adema/the_way_you_like_it_tab_ver_6.html ]
                                 A5D5
     E   q  E q  E E     E  E Q  E  E  Q
|--------------------|---------------------||
|--------------------|---------------------||
|--------------------|---------------------||
|----9---9--9-9--9-9-|------9-9--7s12-12---||
|----9---9--9-9--9-9-|------9-9--7s12-12---||
|----9---9--9-9--9-9-|------9-9--7s12-12---||
|
|   +W                   W
|-([14])-------------|-[17]----------------||
|--------------------|---------------------||
|--------------------|---------------------||
|--------------------|---------------------||
|--------------------|---------------------||
|--------------------|---------------------||


 Out-Chorus
  B5                                   G5                     F#5    D5
    E  E q  E E E E    +E  E Q  H       Q   Q   Q   E.  +S    Q   Q   E E E E
|-------------------|----------------|----------------------|------------------|
|-------------------|----------------|----------------------|------------------|
|-------------------|----------------|---------12-----------|--------/7-7-7-7--|
|---9--9-9--9-9-9-9-|--(9)-9-9--9----|-----12------12--(12)-|----11--/7-7-7-7--|
|---9--9-9--9-9-9-9-|--(9)-9-9--9----|-10-------------------|-9------/5-5-5-5--|
|---9--9-9--9-9-9-9-|--(9)-9-9--9----|----------------------|------------------|
|
| Gtr II
|  +W                  +W               W                     W
|-(17)--------------|-(17)-----------|----------------------|------------------|
|-------------------|----------------|----------------------|------------------|
|-------------------|----------------|----------------------|------------------|
|-------------------|----------------|----------------------|------------------|
|-------------------|----------------|----------------------|------------------|
|-------------------|----------------|----------------------|------------------|


  B5
  E E q  E E E E   +E  E   Q     H
|----------------|-------------------------|
|----------------|-------------------------|
|----------------|-------------------------|
|-9-9-9--9-9-9-9-|-(9)-9---9-----9---------|
|-9-9-9--9-9-9-9-|-(9)-9---9-----9---------|
|-9-9-9--9-9-9-9-|-(9)-9---9-----9---------|
|
| Gtr II
| W                 Q      Q     Q     Q
|----------------|-------[17]--[15]--[14]--|
|----------------|-------------------------|
|----------------|-------------------------|
|----------------|-------------------------|
|----------------|-------------------------|
|----------------|-------------------------|


  G5                       F#5        D5
    Q    Q   Q   E.  +S      Q     Q   E E E E
|------------------------|----------------------|
|------------------------|----------------------|
|-----------12-----------|------------/7-7-7-7--|
|-------12------12--(12)-|--------11--/7-7-7-7--|
|--10--------------------|---9--------/5-5-5-5--|
|------------------------|----------------------|
|
|  +W                       +W
|-(14)-------------------|-(14)\----------------|
|------------------------|----------------------|
|------------------------|----------------------|
|------------------------|----------------------|
|------------------------|----------------------|
|------------------------|----------------------|


  B5                               G5                     F#5    D5
  E E q  E E E E   +E  E Q  H       Q   Q   Q   E.  +S    Q   Q   E E E E
|----------------|---------------|----------------------|------------------|
|----------------|---------------|----------------------|------------------|
|----------------|---------------|---------12-----------|--------/7-7-7-7--|
|-9-9-9--9-9-9-9-|-(9)-9-9--9----|-----12------12--(12)-|----11--/7-7-7-7--|
|-9-9-9--9-9-9-9-|-(9)-9-9--9----|-10-------------------|-9------/5-5-5-5--|
|-9-9-9--9-9-9-9-|-(9)-9-9--9----|----------------------|------------------|


    B5
    E E q  E E E E   +E  E   Q     H
||-----------------|-------------------------|
||o----------------|-------------------------|
||-----------------|-------------------------|
||--9-9-9--9-9-9-9-|-(9)-9---9-----9---------|
||o-9-9-9--9-9-9-9-|-(9)-9---9-----9---------|
||--9-9-9--9-9-9-9-|-(9)-9---9-----9---------|
|
|   Gtr II
|   W                 Q      Q     Q     Q
||-----------------|-------[17]--[15]--[14]--|
||o----------------|-------------------------|
||-----------------|-------------------------|
||-----------------|-------------------------|
||o----------------|-------------------------|
||-----------------|-------------------------|


  G5                       F#5        D5
    Q    Q   Q   E.  +S      Q     Q   E E E E
|------------------------|----------------------||
|------------------------|---------------------o||
|-----------12-----------|------------/7-7-7-7--||
|-------12------12--(12)-|--------11--/7-7-7-7--||
|--10--------------------|---9--------/5-5-5-5-o||
|------------------------|----------------------||
|
|  +W                       +W
|-(14)-------------------|-(14)\----------------||
|------------------------|---------------------o||
|------------------------|----------------------||
|------------------------|----------------------||
|------------------------|---------------------o||
|------------------------|----------------------||


  B5
  E E q  E E E E   +E  E   Q     H
|----------------|-------------------------|
|----------------|-------------------------|
|----------------|-------------------------|
|-9-9-9--9-9-9-9-|-(9)-9---9-----9---------|
|-9-9-9--9-9-9-9-|-(9)-9---9-----9---------|
|-9-9-9--9-9-9-9-|-(9)-9---9-----9---------|
|
| W                 Q      Q     Q     Q
|----------------|-------[17]--[15]--[14]--|
|----------------|-------------------------|
|----------------|-------------------------|
|----------------|-------------------------|
|----------------|-------------------------|
|----------------|-------------------------|


  G5                       F#5       D5
    Q    Q   Q   E.  +S      Q    Q   E E E E
|------------------------|---------------------|
|------------------------|---------------------|
|-----------12-----------|-----------/7-7-7-7--|
|-------12------12--(12)-|-------11--/7-7-7-7--|
|--10--------------------|---9-------/5-5-5-5--|
|------------------------|---------------------|
|
|  +W                       +W
|-(14)-------------------|-(14)s===============|
|------------------------|---------------------|
|------------------------|---------------------|
|------------------------|---------------------|
|------------------------|---------------------|
|------------------------|---------------------|


  B5
   E E q  E E E E    +E  E   Q     H
|-----------------|--------------------------|
|-----------------|--------------------------|
|-----------------|--------------------------|
|--9-9-9--9-9-9-9-|--(9)-9---9-----9---------|
|--9-9-9--9-9-9-9-|--(9)-9---9-----9---------|
|--9-9-9--9-9-9-9-|--(9)-9---9-----9---------|
|
|  W                 +Q      Q     Q     Q
|-11--------------|-(11)---[17]--[15]--[14]--|
|-----------------|--------------------------|
|-----------------|--------------------------|
|-----------------|--------------------------|
|-----------------|--------------------------|
|-----------------|--------------------------|


  G5                       F#5       D5
    Q    Q   Q   E.  +S      Q    Q   E E E E
|------------------------|---------------------|
|------------------------|---------------------|
|-----------12-----------|-----------/7-7-7-7--|
|-------12------12--(12)-|-------11--/7-7-7-7--|
|--10--------------------|---9-------/5-5-5-5--|
|------------------------|---------------------|
|
|  +W                       +W
|-(14)-------------------|-(14)----------------|
|------------------------|---------------------|
|------------------------|---------------------|
|------------------------|---------------------|
|------------------------|---------------------|
|------------------------|---------------------|


  B5
    E  E q  E E E E    +E  E   Q     H
|-------------------|--------------------------|
|-------------------|--------------------------|
|-------------------|--------------------------|
|---9--9-9--9-9-9-9-|--(9)-9---9-----9---------|
|---9--9-9--9-9-9-9-|--(9)-9---9-----9---------|
|---9--9-9--9-9-9-9-|--(9)-9---9-----9---------|
|
|  +W                  +Q      Q     Q     Q
|-(14)--------------|-(14)---[17]--[15]--[14]--|
|-------------------|--------------------------|
|-------------------|--------------------------|
|-------------------|--------------------------|
|-------------------|--------------------------|
|-------------------|--------------------------|


  G5                       F#5       D5
    Q    Q   Q   E.  +S      Q    Q   E E E E
|------------------------|---------------------|
|------------------------|---------------------|
|-----------12-----------|-----------/7-7-7-7--|
|-------12------12--(12)-|-------11--/7-7-7-7--|
|--10--------------------|---9-------/5-5-5-5--|
|------------------------|---------------------|
|
|  +W                       +W
|-(14)-------------------|-(14)s===============|
|------------------------|---------------------|
|------------------------|---------------------|
|------------------------|---------------------|
|------------------------|---------------------|
|------------------------|---------------------|


  B5
   E E q  E E E E    +E  E   Q     H
|-----------------|--------------------------|
|-----------------|--------------------------|
|-----------------|--------------------------|
|--9-9-9--9-9-9-9-|--(9)-9---9-----9---------|
|--9-9-9--9-9-9-9-|--(9)-9---9-----9---------|
|--9-9-9--9-9-9-9-|--(9)-9---9-----9---------|
|
|  W                 +Q      Q     Q     Q
|-11--------------|-(11)---[17]--[15]--[14]--|
|-----------------|--------------------------|
|-----------------|--------------------------|
|-----------------|--------------------------|
|-----------------|--------------------------|
|-----------------|--------------------------|


  G5                       F#5         D5
    Q    Q   Q   E.  +S      Q     Q     E  E   E  E
|------------------------|----------------------------|
|------------------------|----------------------------|
|-----------12-----------|--------------/7--7---7--7--|
|-------12------12--(12)-|--------11----/7--7---7--7--|
|--10--------------------|---9----------/5--5---5--5--|
|------------------------|----------------------------|
|
|  +W                       +Q     Q     Q      Q
|-(14)-------------------|-(14)--[17]--[15]---[14]----|
|------------------------|----------------------------|
|------------------------|----------------------------|
|------------------------|----------------------------|
|------------------------|----------------------------|
|------------------------|----------------------------|


  B5
    E  E q  E E E E    +E  E   Q     H
|-------------------|--------------------------|
|-------------------|--------------------------|
|-------------------|--------------------------|
|---9--9-9--9-9-9-9-|--(9)-9---9-----9---------|
|---9--9-9--9-9-9-9-|--(9)-9---9-----9---------|
|---9--9-9--9-9-9-9-|--(9)-9---9-----9---------|
|
|  +W                  +Q      Q     Q     Q
|-(14)--------------|-(14)---[17]--[15]--[14]--|
|-------------------|--------------------------|
|-------------------|--------------------------|
|-------------------|--------------------------|
|-------------------|--------------------------|
|-------------------|--------------------------|


  G5                       F#5       D5
    Q    Q   Q   E.  +S      Q    Q    E  E   E  E
|------------------------|--------------------------|
|------------------------|--------------------------|
|-----------12-----------|------------/7--7---7--7--|
|-------12------12--(12)-|-------11---/7--7---7--7--|
|--10--------------------|---9--------/5--5---5--5--|
|------------------------|--------------------------|
|
|  +W                        H         Q      Q
|-(14)-------------------|-[17]------[15]---[14]----|
|------------------------|--------------------------|
|------------------------|--------------------------|
|------------------------|--------------------------|
|------------------------|--------------------------|
|------------------------|--------------------------|


  Gtr II
   +W            +W            +W            +W
|-(14)--------|-(14)--------|-(14)--------|-(14)----*|
|-------------|-------------|-------------|---------*|
|-------------|-------------|-------------|---------*|
|-------------|-------------|-------------|---------*|
|-------------|-------------|-------------|---------*|
|-------------|-------------|-------------|---------*|


Duration Legend
---------------
W - whole; H - half; Q - quarter; E - 8th; S - 16th; T - 32nd; X - 64th; a - acciaccatura
+ - note tied to previous; . - note dotted; .. - note double dotted
Uncapitalized letters represent notes that are staccato (1/2 duration)
Irregular groupings are notated above the duration line
Duration letters will always appear directly above the note/fret number it represents the
duration for.  Duration letters with no fret number below them represent rests.  Multi-
bar rests are notated in the form Wxn, where n is the number of bars to rest for.  Low
melody durations appear below the staff

Tablature Legend
----------------
 h   - hammer-on
 p   - pull-off
 b   - bend
 pb  - pre-bend
 r   - bend release (if no number after the r, then release immediately)
 /\  - slide into or out of (from/to "nowhere")
 s   - legato slide
 S   - shift slide
  - natural harmonic
[n]  - artificial harmonic
n(n) - tapped harmonic
 ~   - vibrato
 tr  - trill
 T   - tap
 TP  - trem. picking
 PM  - palm muting
\n/  - tremolo bar dip; n = amount to dip
 \n  - tremolo bar down
 n/  - tremolo bar up
/n\  - tremolo bar inverted dip
 =   - hold bend; also acts as connecting device for hammers/pulls
 <>  - volume swell (louder/softer)
 x   - on rhythm slash represents muted slash
 o   - on rhythm slash represents single note slash

Misc Legend
-----------
 |  - bar
||  - double bar
||o - repeat start
o|| - repeat end
*|  - double bar (ending)
 :  - bar (freetime)
 $  - Segno
 &  - Coda
Tempo markers -  = BPM(8/16=s8/s16), where s8 = swing 8ths, s16 = swing 16th
Comments