Adema - The Way You Like It Chords & Tabs

 

The Way You Like It Chords & Tabs

Adema Chords & Tabs

Version: 4 Type: Tab 0 ratings
1 star 2 stars 3 stars 4 stars 5 stars
comments

The Way You Like It Tab

Adema: The Way You Like It
Album: Adema

Intro
Guitar 1
e------------------x8-----------------------------------x2--|
B-----------------------------------------------------------|
G--------------------------------1111-1111-1010-1010--------|
D-8-8-8-8-8-8-8-8-------88-88-88-1111-1111-1010-1010-1111---|
A-8-8-8-8-8-8-8-8-------88-88-88-9-9--9-9--8-8--8-8--1111---|
E-6-6-6-6-6-6-6-6-------66-66-66---------------------9-9----|

Guitar 2
e-16*---14*---13*-------------------------------------------|
B-----------------------------------------------------------|
G-----------------------------------------------------------|
D-----------------------------------------------------------|
A-----------------------------------------------------------|
E-----------------------------------------------------------|

[ Tab from: http://www.guitartabs.cc/tabs/a/adema/the_way_you_like_it_tab_ver_4.html ]
Verse
Both Guitars (x2)
e---------------------------------------------------------------|
B---------------------------------------------------------------|
G---------------------------------------------------------------|
D--88-88-88-88--88-88-88-88--88-88-88-88--88-88-88-66/-1111111--|
A--88-88-88-88--88-88-88-88--88-88-88-88--88-88-88-66/-1111111--|
E--66-66-66-66--66-66-66-66--66-66-66-66--66-66-66-44/-9-9-9-9--|

Chorus: intro (x4)
Verse
Chorus

Fill
Guitar 2 (Guitar 1 plays verse)
e-----------13*--14*--13*-----------------------------------|
B-14--13--11------------------------------------------------|
G-----------------------------------------------------------|
D-----------------------------------------------------------|
A-----------------------------------------------------------|
E-----------------------------------------------------------|
Comments