Adema - The Way You Like It Chords & Tabs

 

The Way You Like It Chords & Tabs

Adema Chords & Tabs

Version: 1 Type: Tab 0 ratings
1 star 2 stars 3 stars 4 stars 5 stars
comments

The Way You Like It Tab

                         ADEMA
                   THE WAY YOU LIKE IT


Tuning Standard
Intro/Chorus

Gtr 1
------------------x8-----------------------------------x2--
-----------------------------------------------------------
--------------------------------1111-1111-1010-1010--------
-8-8-8-8-8-8-8-8-------88-88-88-1111-1111-1010-1010-1111---
-8-8-8-8-8-8-8-8-------88-88-88-9-9--9-9--8-8--8-8--1111---
-6-6-6-6-6-6-6-6-------66-66-66---------------------9-9----

[ Tab from: http://www.guitartabs.cc/tabs/a/adema/the_way_you_like_it_tab.html ]
Gtr 2 (Play this 4x- the first very quiet)
-16*---14*---13*-------------------------------------------
-----------------------------------------------------------
-----------------------------------------------------------
-----------------------------------------------------------
-----------------------------------------------------------
-----------------------------------------------------------


Verse

Both Guitars

-----------------------------------------------------------
---------------------------------------------------x2------
-----------------------------------------------------------
88-88-88-88--88-88-88-88--88-88-88-88--88-88-88-66/-1111111
88-88-88-88--88-88-88-88--88-88-88-88--88-88-88-66/-1111111
66-66-66-66--66-66-66-66--66-66-66-66--66-66-66-44/-9-9-9-9


Fill

Gtr 2 (Guitar 1 plays verse)
-----------13*--14*--13*-----------------------------------
-14--13--11------------------------------------------------
-----------------------------------------------------------
-----------------------------------------------------------
-----------------------------------------------------------
-----------------------------------------------------------
Comments