Adema - Speculum Chords & Tabs

 

Speculum Chords & Tabs

Adema Chords & Tabs

Version: 1 Type: Tab 0 ratings
1 star 2 stars 3 stars 4 stars 5 stars
comments

Speculum Tab

i am pretty sure this is right. it is a really easy song.

/-slide

verse:

e-----------------------------------------------------------
b-----------------------------------------------------------
g-----------------------------------------------------------
d----3--------3---------3-----------------------------------  x4
a-1-1-1--------1----4-4--4--------3-4-3---------------------
e----------2-2---------------1-1----------------------------

e---------
b---------
g------5-6
d--3-3----     (harmonics)
a---------
e---------

Chorus:
e--------------------------------------------------------
b--------------------------------------------------------
g--3----------6------------------------------------------
d--3----4-----6-----3------------------------------------          x2
a--1----4-----4-----3------------------------------------
e-------2----(4)----1------------------------------------

Verse again, this time 5 times.

Now the Chorus, this time do the chorus 4 times

[ Tab from: http://www.guitartabs.cc/tabs/a/adema/speculum_tab.html ]
Now:
e---------------------------------
b---------------------------------
g-------7--7----------------------
d-------8--8---------------------- x4
a-------8--8----------------------
e-------6--6-----------------------

The 2nd guitar continues with the chorus in the background.

Solo:
e---------------------------------------------------
b---------------------------------------------------
g---------------------------------------------------
d----------------3-4-3------------------------------       x2
a----3/4--4/3-3---------4/3-3-1---------------------
e---------------------------------------------------

After that, just jump in with the second guitarist on the chorus 
i think 5 more times. count and make sure.

Then:
-----------------------------------------------
-----------------------------------------------
-----7--7------7--7-----7--7-----7-------------
-----8--8------6--6-----6--8-----8-------------
-----8--8------6--6-----6--8-----8-------------
-----6--6------8--8-----8--8-----8-------------


And that's it. Have fun!!!!!
Comments