Adema - Someone Elses Lies Chords & Tabs

 

Someone Elses Lies Chords & Tabs

Adema Chords & Tabs

Version: 1 Type: Tab 0 ratings
1 star 2 stars 3 stars 4 stars 5 stars
comments

Someone Elses Lies Tab

Adema - Someone Else's Lies
Tuning: Drop D - DADGBE

Intro:
e|---------------------------------------------------|
B|---------------------------------------------------|
G|-------------------6-------6-----------------------|
D|--0--0--0--8-5--0--6-7--0--6-7---------------------|
A|--0--0--0--8-5--0--4-7--0--4-7---------------------|
D|--0--0--0--8-5--0----7--0----7---------------------|

Verse:
e|------------------------------8888-----------------|
B|----------------------------------9999-------------|
G|---------------------------------------------------|
D|---------------------------------------------------|
A|--8888-1010101011111111-6666-----------------------|
D|--8888-1010101011111111-6666-----------------------|
[ Tab from: http://www.guitartabs.cc/tabs/a/adema/someone_elses_lies_tab.html ]
Chorus: Guitar 1
e|---------------------------------------------------|
B|---------------------------------------------------|
G|--33333333-33333333-88888888-1111111111111111------|
D|--33333333-33333333-88888888-1111111111111111------|
A|--11111111-11111111-66666666--9-9-9-9-9-9-9-9------|
D|---------------------------------------------------|

Guitar 2
e|--13-13-13-13-13-13-13-13-10-10-10-10-14-14-14-14--|
B|---------------------------------------------------|
G|---------------------------------------------------|
D|---------------------------------------------------|
A|---------------------------------------------------|
D|---------------------------------------------------|

Bridge:
e|---------------------------------------------------|
B|---------------------------------------------------|
G|------------------66666666888811111111-------------|
D|--888888886666666666666666888811111111-------------|
A|--8888888866666666444444446666-9-9-9-9-------------|
D|--8888888866666666---------------------------------|
Comments