Adema - Someone Elses Lies Chords & Tabs

 

Someone Elses Lies Chords & Tabs

Adema Chords & Tabs

Version: 1 Type: Bass Tab 0 ratings
1 star 2 stars 3 stars 4 stars 5 stars
comments

Someone Elses Lies Bass Tab

Adema - Someone Else's Lies
Tuning: Drop C - CADG

Intro:
G|----------------------------------------------------------|
D|--------------4----------6--------------------------------|
A|------------------4----------6------6---6-----------------|
C|--0----0---0-----------0----------------------------------|

G|----------------------------------------------------------|
D|--------------4----------6----------6---8-----------------|
A|------------------4----------6----------------------------|
C|--0----0---0-----------0----------------------------------|
[ Tab from: http://www.guitartabs.cc/tabs/a/adema/someone_elses_lies_btab.html ]
Verse:
G|-----------------------------------------------|----------|
D|-----------------------------------------------|----2352--|
A|--1--1---3---4---6--6--------------------------|--33------|
C|-----------------------------6--6--------4--4--|----------|

Pre-Chorus:
G|----------------------------------------------------------|
D|----------------------------------------------------------|
A|--1-1-1-1-1-1-1-1-1-1-1-1-1-1-1-1-------------------------|
C|----------------------------------------------------------|

Chorus:
G|----------------------------------------------------------|
D|----------------------------------------------------------|
A|--1-1-1-1-1-1-1-1-1-1-1-1-1-1-1-1-------------------------|
C|----------------------------------5-5-5-5-7-7-7-7---------|
Comments