Adema - Promises Chords & Tabs

 

Promises Chords & Tabs

Adema Chords & Tabs

Version: 4 Type: Tab 0 ratings
1 star 2 stars 3 stars 4 stars 5 stars
comments

Promises Tab

Adema - Promises
Tuning: EADGBE
H=hammer on

(Intro: strumming is easy to learn just listen to the song)
E|-------------------------||
B|-------------------------||
G|-------------------------||
D|-3333---5555-5555---6666-||
A|-3333---5555-5555---6666-||
E|-1111---3333-3333---4444-||

E|-------------------------------------------||
B|--8h998-----8h998-----88h99999--8h998------||
G|-------------------------------------------||
D|-------------------------------------------||
A|-------------------------------------------||
E|-------------------------------------------||

(Same thing but with distortion)
E|-------------------------||
B|-------------------------||
G|-------------------------||
D|-3333---5555-5555---6666-||
A|-3333---5555-5555---6666-||
E|-1111---3333-3333---4444-||
[ Tab from: http://www.guitartabs.cc/tabs/a/adema/promises_tab_ver_4.html ]
E|-------------------------------------------||
B|--8h998-----8h998-----88h99999--8h998------||
G|-------------------------------------------||
D|-------------------------------------------||
A|-------------------------------------------||
E|-------------------------------------------||

(distortion all the way up)
(0:45)
E|-------------------------||
B|-------------------------||
G|-------------------------||
D|-33--55--55--66----------||
A|-33--55--55--66----------||
E|-11--33--33--44----------||

(with distortion)
E|-------------------------||
B|-------------------------||
G|-------------------------||
D|-3333---5555-5555---6666-||
A|-3333---5555-5555---6666-||
E|-1111---3333-3333---4444-||

(2:15 distortion all the way up)

E|-------------------------||
B|-------------------------||
G|----8/5----------6/3-----||
D|-55-8/5-(4x)--33-6/3-(4x)|| (2x)
A|-55-6/3-------33-4/1-----||
E|-33-----------11---------||
Comments