Adema - Planets Chords & Tabs

 

Planets Chords & Tabs

Adema Chords & Tabs

Version: 1 Type: Tab 0 ratings
1 star 2 stars 3 stars 4 stars 5 stars
comments

Planets Tab

-------------------------------------------------------------------------------
			     PLANETS - Adema
-------------------------------------------------------------------------------
Tabbed by:Dogtreat16
Email:dogtreat1990@yahoo.com

     I've already tabbed this song, but got an email on some things i messed up
     ....this version is better...enjoy :)
Tuning:DADGBE
[ Tab from: http://www.guitartabs.cc/tabs/a/adema/planets_tab.html ]
  intro/verse w/ clean, reverb, and chorus, x6
e|-------8---6---4----6---4---3br--------------------------------------------|
B|---6-6---6---6---4-4--4---4------------------------------------------------|
G|---------------------------------------------------------------------------|
D|---------------------------------------------------------------------------|
A|---------------------------------------------------------------------------|
D|---------------------------------------------------------------------------|
chorus 1 w/clean, reverb, chorus, x2
e|---------------------------------------------------------------------------|
B|---------------------------------------------------------------------------|
G|---------------------------------------------------------------------------|
D|---------------------------------------------------------------------------|
A|--------333333333--------444444444--------333333333----3-3-0------4-4-1----|
D|-333333-----------111111-----------333333-----------111-1-1----333-3-3-----|
verse 2 w/ clean, reverb, and chorus, x4
e|-------8---6---4----6---4---3br--------------------------------------------|
B|---6-6---6---6---4-4--4---4------------------------------------------------|
G|---------------------------------------------------------------------------|
D|---------------------------------------------------------------------------|
A|---------------------------------------------------------------------------|
D|---------------------------------------------------------------------------|
chorus 2  x2                                            first time           second time
e|----------------------------------------------------|----------------------|----------------|
B|----------------------------------------------------|----------------------|----------------|
G|----------------------------------------------------|----------------------|----------------|
D|----------------------------------------------------|----------------------|----------------|
A|--------333333333--------444444444--------333333333-|---3-3-0------4-4-1---|-000000000000000|
D|-333333-----------111111-----------333333-----------|111-1-1----333-3-3----|-000000000000000|
                                                                          P.M.............. 
                                                                                                   
interlude (starts with him saying "wolf" and holding that lyric out.)
e|---------------------------------------------------------------------------|
B|---------------------------------------------------------------------------|
G|---------------------------------------------------------------------------|
D|---------------------------------------------------------------------------|
A|--------333333333--------444444444--------333333333----3-3-0------4-4-1----|
D|-333333-----------111111-----------333333-----------111-1-1----333-3-3-----|                            
bridge x2
e|---------------------------------------------------------------------------|
B|---------------------------------------------------------------------------|
G|---------------------------------------------------------------------------|
D|4--44--44--44-4-6-66--66--66-6-8--88--88--88-8--10x8--11x4--13x4-----------|
A|2--22--22--22-2-6-66--66--66-6-8--88--88--88-8--10----11----13-------------|
D|4--44--44--44-4-6-66--66--66-6-8--88--88--88-8--10----11----13-------------|
chorus 3 x3  w/distortion
e|---------------------------------------------------------------------------|
B|---------------------------------------------------------------------------|
G|---------------------------------------------------------------------------|
D|---------------------------------------------------------------------------|
A|--------333333333--------444444444--------333333333----3-3-0------4-4-1----|
D|-333333-----------111111-----------333333-----------111-1-1----333-3-3-----|   
outro x4                          end on this note
e|-------8---6---4----6---4---3br|-------------------------------------------|
B|---6-6---6---6---4-4--4---4----|-6-----------------------------------------|
G|-------------------------------|-------------------------------------------|
D|-------------------------------|-------------------------------------------|
A|-------------------------------|-------------------------------------------|
D|-------------------------------|-------------------------------------------|

big thanks to matt koivu for showing me that my chorus sucked lol...ok there
you have it...have fun little children...
Comments