Adema - Let Go Chords & Tabs

 

Let Go Chords & Tabs

Adema Chords & Tabs

Version: 1 Type: Tab 0 ratings
1 star 2 stars 3 stars 4 stars 5 stars
comments

Let Go Tab

Adema-Let Go
Tuning: Half step down

Intro:
Eb-------3--3-5--------5---8-6-5p65---|
Bb---5-5---5-5-7---6-6---6---------6--|
Gb------------------------------------|
Db------------------------------------|
Ab------------------------------------|
Eb------------------------------------|

Intro2:
Eb--------------------------------------------------|
Bb---------------------3----------3-----------------|
Gb--------0-----------2-2--------2-2----------------|
Db----0h2---0h2-----0----0-----0----0-------3-2-----|
Ab--3-----------------------------------0h1--1--1---|
Eb----------------2----------1----------------------|
[ Tab from: http://www.guitartabs.cc/tabs/a/adema/let_go_tab.html ]
Chorus:
Eb--------------------|
Bb--------------------|
Gb---5---7---10---3---|   Hit each chord a few times
Db---5---7---10---3---|	Just listen for it
Ab---3---5---8----1---|
Eb--------------------|

Bridge (very basic):
Eb---------------------8-9--9-9-8--------------------------|
Bb---8--8-8-10-6--6-10------------9---8--8-8-10-6---9-8-4--|
Gb---------------------------------------------------------|
Db---------------------------------------------------------|
Ab---------------------------------------------------------|
Eb---------------------------------------------------------|

STRUCTURE:
Intro1      x2
Intro2      x4
Chorus      x1
Intro2      x4
Chorus      x4
Bridge      x2
Intro1&2    x1
Chorus      x8   Listen for different timing on last 4
Comments