Adema - Immortal Chords & Tabs

 

Immortal Chords & Tabs

Adema Chords & Tabs

Version: 3 Type: Tab 0 ratings
1 star 2 stars 3 stars 4 stars 5 stars
comments

Immortal Tab

   
Ok I've seen a few Immortal tabs and in my opinion I think they don't sound so right so i tabbed it myself.

p/h     pull off/hammer on
~       let ring
.       palm mute
--      vibrato

Intro:

D|----------------------------------------------|
A|----------------------------------------------|
D|----------------------------------------------|
G|----------------------------------------------|
B|----------------------------------------------|
E|----19-1919-19-19-1919-20--19-1919-19-17-20---|
                         --
Before Verse:
[ Tab from: http://www.guitartabs.cc/tabs/a/adema/immortal_tab_ver_3.html ]
D|-0-3-5-6-7-8---0-3-5-0-3-0-2-|
A|-0-3-5-6-7-8---0-3-5-0-3-0-2-|
D|-0-3-5-6-7-8---0-3-5-0-3-0-2-|
G|-----------------------------|
B|-----------------------------|
E|-----------------------------| (x2)

Pre Chorus:
                         
D|-7-3-5-|
A|-7-3-5-|
D|-7-3-5-|
G|-------|
B|-------|
E|-------|

Chorus:

D|-9999999-7777777-10101010101010-9-7-|
A|-9999999-7777777-10101010101010-9-7-|
D|-9999999-7777777-10101010101010-9-7-|
G|------------------------------------|
B|------------------------------------|
E|------------------------------------|

Outro:

D|-2-2-3-4-22-3-4-22-3-3-4-2--|
A|-2-2-3-4-22-3-4-22-3-3-4-2--|
D|-2-2-3-4-22-3-4-22-3-3-4-2--|
G|----------------------------|
B|----------------------------|
E|----------------------------|

Any suggestions/complaints send it to sub_degree@hotmail.com
Comments