Adema - Giving In Chords & Tabs

 

Giving In Chords & Tabs

Adema Chords & Tabs

Version: 8 Type: Tab 0 ratings
1 star 2 stars 3 stars 4 stars 5 stars
comments

Giving In Tab

   
Giving In-Adema
Adema

Drop Db
Db Ab Db Gb Bb Eb

Riff A w/ delay and wah

e-------------------------------------------------
b----10----10-10-10-10-10---10---10-10-10-10-10---
g-10----10----------------9----9------------------
d-------------------------------------------------
a-------------------------------------------------
d-------------------------------------------------

0:19

Fig 1. gtr 1

e-----------------------------------------------------------------
b-----------------------------------------------------------------
g-----------------5-5-5-5-5-5-5-5-7-7-7-7-7-7-7-7-7-7-7-7-7-7-7-7-
d-7-7-7-7-7-7-7-7-x-x-x-x-x-x-x-x-x-x-x-x-x-x-x-x-x-x-x-x-x-x-x-x-
a-0-0-0-0-0-0-0-0-3-3-3-3-3-3-3-3-5-5-5-5-5-5-5-5-5-5-5-5-5-5-5-5-
d---------------------------------0-0-0-0-0-0-0-0-0-0-0-0-0-0-0-0-

Fig 1a. gtr 2. w/ ocatver, down 1 oct.

e-----------------------------------------------------------------
b-----------------------------------------------------------------
g-----------------------------------------------------------------
d-------------------------------------2-2h3p2---------------------
a-----0-2h3p2---------0-0h2p0-------------------------2 2h3-2h3---
d-----------------------------------------------------------------

Fig 1. cont

e-----------------------------------------------------------------
b-----------------------------------------------------------------
g-----------------5-5-5-5-5-5-5-5-7-7-7-7-7-7-7-7-----------------
d-7-7-7-7-7-7-7-7-x-x-x-x-x-x-x-x-x-x-x-x-x-x-x-x-3-3-3-3-2-2-2-2-
a-0-0-0-0-0-0-0-0-3-3-3-3-3-3-3-3-5-5-5-5-5-5-5-5-x-x-x-x-x-x-x-x-
d-------------------------------------------------3-3-3-3-2-2-2-2-

Fig 1a. cont

e-----------------------------------------------------------------
b-----------------------------------------------------------------
g-----------------------------------------------------------------
d-------------------------------------2-2h3p2---------------------
a-----0-2h3p2---------0-0h2p0-------------------------2 2h3-2h3---
d-----------------------------------------------------------------

Verses: Bass arr for gtr

g-----------------------------------------------------------------
d-----------------------------------------------------------------
a-----------------------------------------------------------------
d-7-7--7----------3-3--3----------8-8--8----------2-2--2----------

Chorus:
[ Tab from: http://www.guitartabs.cc/tabs/a/adema/giving_in_tab_ver_8.html ]
e-----------------------------------------------------------------
b-----------------------------------------------------------------
g-----------5-5-5-5-5-5-5--7-7-7-7-7-7-7--12-12-12-12-12-12-12-12-
d-7-7--7-7--x-x-x-x-x-x-x--x-x-x-x-x-x-x--x--x--x--x--x--x--x--x--
a-0-0--0-0--3-3-3-3-3-3-3--5-5-5-5-5-5-5--10-10-10-10-10-10-10-10-
d-----------------------------------------0--0--0--0--0--0--0--0--

e-----------------------------------------------------------------
b-----------------------------------------------------------------
g-----------5-5-5-5-5-5-5--7-7-7-7-7-7-7--------------------------
d-7-7--7-7--x-x-x-x-x-x-x--x-x-x-x-x-x-x--5-5-5-5-5-5-5-5-5-5-5-5-
a-0-0--0-0--3-3-3-3-3-3-3--5-5-5-5-5-5-5--5-5-5-5-5-5-5-5-5-5-5-5-
d-----------------------------------------5-5-5-5-5-5-5-5-5-5-5-5-

Solo: w/ wah and delay

e-----------------------------------------------------------------
b-----------------------------------------10----------------------
g------5-7-5-7/9---7-5-5-7-5--------5-7-5-----7-5-4--5-4----------
d----------------------------7---5-----------------------7--------
a--x-0------------------------------------------------------------
d-----------------------------------------------------------------

e-----------------------------------------------------------------
b-----------------------------------------10----------------------
g------5-7-5-7/9---7-5-5-7-5--------5-7-5-----7-5-4--5-4----------
d----------------------------7---5--------------------------------
a-----------------------------------------------------------------
d-----------------------------------------------------------------

Bridge:

e-----------------------------------------------------------------
b-----------------------------------------------------------------
g-----------------------------------------------------------------
d-----------------------------------------------------------------
a-0-0-0-0-0-0-0-0-------------------------------------------------
d-----------------3-3-3-3-3-3-3-3-2-2-2-2-2-2-2-2-1-1-1-1-1-1-1-1-

...take me, under...

e--------7h8-7~~-------5-5h7-5~~----------------------------------
b--------------------------------------5-5h6-5~~------------------
g---------------------------------------------------------4h5-4h5-
d-7--7-7---------3--3-------------2--2-----------1--1---7---------
a-0--0-----------x--x-------------x--x-----------x--x-------------
d----------------3--3-------------2--2-----------1--1-------------

Thatís all
just piece it together

trevor jones
timmy91199@yahoo.ca
Comments