Adema - Giving In Chords & Tabs

 

Giving In Chords & Tabs

Adema Chords & Tabs

Version: 2 Type: Tab 0 ratings
1 star 2 stars 3 stars 4 stars 5 stars
comments

Giving In Tab

   
well hope you like it



Drop D

h=hammer on

intro
[ Tab from: http://www.guitartabs.cc/tabs/a/adema/giving_in_tab_ver_2.html ]
reapeat 4 times 
-----4---4-4-4-4----4--4-4-4-4--------------------------------------
----5-5------------4-4----------------------------------------------
--------------------------------------------------------------------
--------------------------------------------------------------------
--------------------------------------------------------------------
--------------------------------------------------------------------


heavy part

--------------------------------------------------------------------
--------------------------------------------------------------------
--------------------------------------------------------------------
--6-6--8h9--9-9--6h8-11-11-------11-11------------------------------
--6-6-------9-9------11-11--6h7--11-11------------------------------
--6-6-------9-9------11-11-------11-11--8h9-------------------------

thats all i got sorry but it sound good
Comments