Adema - Giving In Chords & Tabs

 

Giving In Chords & Tabs

Adema Chords & Tabs

Version: 1 Type: Tab 0 ratings
1 star 2 stars 3 stars 4 stars 5 stars
comments

Giving In Tab

hey im digging this new song. i heard it on the radio the other day
it sounds like a band mixed with korn and linkin park. pretty bitchin
song.peace out.SHIBBY!!!!!!!!!!!!!!11


Standard tuning (EADGBe) 

Intro (6X) 
e|--4---4-4-4-4-4---4---4-4-4-4-4 
B|5---5-----------4---4---------- 
G|------------------------------- 
D|------------------------------- 
A|------------------------------- 
E|------------------------------- 
[ Tab from: http://www.guitartabs.cc/tabs/a/adema/giving_in_tab.html ]
Verse (4X) 
e|---------------------------------------------- 
B|---------------------------------------------- 
G|---------------------------------------------- 
D|6-6-8h9p8--9-9-6h8p6--11-11--------11-11------ 
A|6-6--------9-9--------11-11-6h7p6--11-11------ 
E|4-4--------7-7---------9--9---------9--9-6h7p6 

Solo (2X with wah) 
e|---------------------------4------------ 
B|------4--------------------------------- 
G|4h6p4---6p4-4h6p4----4h6p4---6p4-3h4p3-- 
D|------------------6--------------------6 
A|---------------------------------------- 
E|---------------------------------------- 
Comments