Adema - Everyone Chords & Tabs

 

Everyone Chords & Tabs

Adema Chords & Tabs

Version: 1 Type: Bass Tab 0 ratings
1 star 2 stars 3 stars 4 stars 5 stars
comments

Everyone Bass Tab

Adema - Everyone
Tuning: Drop D - DADG

Intro:
G|-----------------------------------------------------------------|
D|-----------------------------------------------------------------|
A|-----------------------------------------------------------------|
D|--3--331-13--331-13--331-1-33-44-1-------------------------------|
[ Tab from: http://www.guitartabs.cc/tabs/a/adema/everyone_btab.html ]
Verse:
G|-----------------------------------------------------------------|
D|-----------------------------------------------------------------|
A|-----------------------------------------------------------------|
D|--3-3-3-3-3-3-3-1-1-1-1-1-1-1-1-0-0-0-0-0-0-0-0-0-0-0-0-0-0-0-0--|

Chorus:
G|-----------------------------------------------------------------|
D|-----------------------------------------------------------------|
A|--------------------------4-4------------------------------------|
D|--3-3-3-3-4-4-6-6-6-6-6-6-----3-3--------------------------------|

Bridge:
G|-----------------------------------------------------------------|
D|-----------------------------------------------------------------|
A|-----------------------------------------------------------------|
D|--1/3--3--3-33-3/6--6--6-66-6\1/3--------------------------------|
Comments