Adema - Do You Hear Me Chords & Tabs

 

Do You Hear Me Chords & Tabs

Adema Chords & Tabs

Version: 1 Type: Bass Tab 0 ratings
1 star 2 stars 3 stars 4 stars 5 stars
comments

Do You Hear Me Bass Tab

Adema - Do You Hear Me
Tuning:drop D - DADG

Intro is a guitar.

Verse

G------------------------------------------------|
D------------------------------------------------|
A-----1-111-1-1-1-1-11--4-444-4-4-4-4-44---------|
D--5\1-------------------------------------------|

Chorus
[ Tab from: http://www.guitartabs.cc/tabs/a/adema/do_you_hear_me_btab.html ]
G------------------------------------------------|
D-------------------------------2----------------|
A--5--55--55--4-2---5--55--55--4-----------------|
D------------------------------------------------|

Bridge

G--------------------------------------------------------------------------|
D---------------------------------6666----------------6666-----------------|
A-11111111111111114444444444444444----8888888888888888----6666666666666666-|
D--------------------------------------------------------------------------|

End On:

G------|
D------|
A--1~--|
D------|
Comments