Adema - Co-dependant Chords & Tabs

 

Co-dependant Chords & Tabs

Adema Chords & Tabs

Version: 1 Type: Tab 0 ratings
1 star 2 stars 3 stars 4 stars 5 stars
comments

Co-dependant Tab

Band: Adema
Song: Co-dependant
Tabbed by: David Maillet

Tunning: Drop D

Intro: (4x)

e|------------------------------------------------|
B|------------------------------------------------|
G|------------------------------------------------|
D|-10-0-10-0-10-10-0-10-0-11-10-11-10-10-8-10-8---|
A|-8--0-8--0-8--8--0-8--0-9--8---9--8--8-6-8--6---|
D|-8--0-8--0-8--8--0-8--0-9--8---9--8--8-6-8--6---|


Verse: (2x)

e|-------------------------------------------------------------|
B|-------------------------------------------------------------|
G|-------------------------------------------------------------|
D|-10-0-10-0-10-10-0-11-10-8-10--10-6-0-6-0-6-6-0-10-10-10-10--|
A|-8--0-8--0-8--8--0-9--8--6-8---8--8-0-8-0-8-8-0-8--8--8--8---|
D|-8--0-8--0-8--8--0-9--8--6-8---8--8-0-8-0-8-8-0-8--8--8--8---|

e|------------------------------------------------------------|
B|------------------------------------------------------------|
G|------------------------------------------------------------|
D|-10-0-10-0-10-10-0-10-0-10-10-10-10-4-4-4-4-----------------|
A|-8--0-8--0-8--8--0-8--0-8--8--8--8--2-2-2-2-----------------|
D|-8--0-8--0-8--8--0-8--0-8--8--8--8--2-2-2-2-----------------|

Chorus: (2x)

e|-------------------------------------|
B|-------------------------------------|
G|--------6----------------------------|
D|-10-----6-x8-3--5--4----8--3---------|
A|-8--x8--4----1--3--6-x8-6--1-x8------|
D|-8-----------1--3--6----6--1---------|

Verse 2: (2x)
[ Tab from: http://www.guitartabs.cc/tabs/a/adema/co_dependant_tab.html ]
e|-------------------------------------------------------------|
B|-------------------------------------------------------------|
G|-------------------------------------------------------------|
D|-10-0-10-0-10-10-0-11-10-8-10--10-6-0-6-0-6-6-0-10-10-10-10--|
A|-8--0-8--0-8--8--0-9--8--6-8---8--8-0-8-0-8-8-0-8--8--8--8---|
D|-8--0-8--0-8--8--0-9--8--6-8---8--8-0-8-0-8-8-0-8--8--8--8---|

e|------------------------------------------------------------|
B|------------------------------------------------------------|
G|------------------------------------------------------------|
D|-10-0-10-0-10-10-0-10-0-10-10-10-10-4-4-4-4-----------------|
A|-8--0-8--0-8--8--0-8--0-8--8--8--8--2-2-2-2-----------------|
D|-8--0-8--0-8--8--0-8--0-8--8--8--8--2-2-2-2-----------------|

Chorus 2: (4x)

e|-------------------------------------|
B|-------------------------------------|
G|--------6----------------------------|
D|-10-----6-x8-3--5--4----8--3---------|
A|-8--x8--4----1--3--6-x8-6--1-x8------|
D|-8-----------1--3--6----6--1---------|

Interlude (same as intro): (6x)

e|------------------------------------------------|
B|------------------------------------------------|
G|------------------------------------------------|
D|-10-0-10-0-10-10-0-10-0-11-10-11-10-10-8-10-8---|
A|-8--0-8--0-8--8--0-8--0-9--8---9--8--8-6-8--6---|
D|-8--0-8--0-8--8--0-8--0-9--8---9--8--8-6-8--6---|

Chorus 3: Play until the end

e|-------------------------------------|
B|-------------------------------------|
G|--------6----------------------------|
D|-10-----6-x8-3--5--4----8--3---------|
A|-8--x8--4----1--3--6-x8-6--1-x8------|
D|-8-----------1--3--6----6--1---------|

End on

e|-------------------|
B|-------------------|
G|-------------------|
D|-10-0-10-10-10-0---|
A|-8--0-8--8--8--0---|
D|-8--0-8--8--8--0---|
Comments