Adema - Close Friends Chords & Tabs

 

Close Friends Chords & Tabs

Adema Chords & Tabs

Version: 5 Type: Tab 0 ratings
1 star 2 stars 3 stars 4 stars 5 stars
comments

Close Friends Tab

   
Adema - Close Friends
Tabbed By Freaking Out
Tuning - Drop A: AEADF#B

Intro/Chorus (guitar2)

B-----666-44-66-444---666-999-88---666-44-66-444---666-444-66-|  (Use Wah with
F--666-------------777----------666-------------777-----------|   a little
D-------------------------------------------------------------|   distortion)
A-------------------------------------------------------------|
E-------------------------------------------------------------|
A-------------------------------------------------------------|

Intro/Chorus (guitar1)
[ Tab from: http://www.guitartabs.cc/tabs/a/adema/close_friends_tab_ver_5.html ]
B-----------------------------------------------------------|   (Use Heavy
F-----------------------------------------------------------|    distortion
D----------4-4-4-------3-3-3----------4-4-4-----------------|    here)
A-xx-1-1-1-4-4-4-4-4-4-3-3-3-xx-1-1-1-4-4-4-4-4-4-1-1-3-3-3-|
E-xx-1-1-1-2-2-2-4-4-4-1-1-1-xx-1-1-1-2-2-2-4-4-4-1-1-3-3-3-|
A-xx-1-1-1-------4-4-4-------xx-1-1-1-------4-4-4-----3-3-3-|   Do this twice

Verse (guitar2)

B----------------------------------------|  (Use Wah with a little distortion
F----------------------------------------|   here)
D--13-13-13-----12-12----16-16-16--15-15-|
A----------------------------------------|
E----------------------------------------|
A----------------------------------------|

Do both Intro/Chorus here twice.
Do the verse here.
Do the Intro/Chorus again twice.
First part of the bridge isn't a guitar.

Bridge (guitar1)

B-------------------------------|  (Do this with a clean effect)
F-------------------------------|
D-------------------------------|
A-1-1-1-1-5-5-5-4-4-4-4-2-2-2-2-|
E-1-1-1-1-5-5-5-4-4-4-4-2-2-2-2-|
A-1-1-1-1-5-5-5-4-4-4-4-2-2-2-2-|

Do the Intro/Chorus again until the end of the song.

Thats the whole song. Sounds 100%. ENJOY!!
Comments