Adema - Close Friends Chords & Tabs

 

Close Friends Chords & Tabs

Adema Chords & Tabs

Version: 4 Type: Tab 0 ratings
1 star 2 stars 3 stars 4 stars 5 stars
comments

Close Friends Tab

Adema
Close Friends

Intro
e---6--6-44646--6-699868------------------------------------|
B-66-6--------66-6------------------------------------------|
G-----------------------------------------------------------|
D-----------------------------------------------------------|
A-----------------------------------------------------------|
E-----------------------------------------------------------|
[ Tab from: http://www.guitartabs.cc/tabs/a/adema/close_friends_tab_ver_4.html ]
chorus (distortion)
------------------------------|
------------------------------|
------------4-4-4-------3-3-3-|
-XX-x-1-1-1-4-4-4-4-4-4-3-3-3-|
-XX-x-1-1-1-2-2-2-4-4-4-1-1-1-|
-XX-x-1-1-1-------4-4-4-------| do this 4 times


------------------------------------|
------------------------------------|
-13---12-----16------13---12-----16-|
------------------------------------|
------------------------------------|
------------------------------------|


second part of bridge (clean) "makes me go insane......"
----------------------------|
----------------------------|
----------------------------|
-1-1-1--5-5-5--4-4-4--2-2-2-|
-1-1-1--5-5-5--4-4-4--2-2-2-|
-1-1-1--5-5-5--4-4-4--2-2-2-| do this 4 times
Comments