Adema - Betrayed Me Chords & Tabs

 

Betrayed Me Chords & Tabs

Adema Chords & Tabs

Version: 1 Type: Tab 0 ratings
1 star 2 stars 3 stars 4 stars 5 stars
comments

Betrayed Me Tab

"BETRAYED ME"


INTRO/VERSE
------------------------------------------------------
------------------------------------------------------
-----------------3--------------------3---1--3--3/5---
--------3----------3-------3------------3-------------
---1--4---4-------------------4-----------------------
---------------4--------1----------2------------------

1ST PRE-CHORUS
---------------------------------------------------------------------------
---------------------------------------------------------------------------
---------------------------------------------------------------------------
---------------------------------------66666666666666666/888888888888888---
---88888888888888888/66666666666666666-44444444444444444/666666666666666---
---66666666666666666/44444444444444444-------------------------------------

CHORUS
-------------------------------------------------------------------------
-------------------------------------------------------------------------
-------------------------------------------------------------------------
-------------------------------------------------------------------------
---8-8-8-8-8-8-8-8-8/6-6-6-6-6-6-6-6--3-3-3-3-3-3-3-3--4-4-4-4-4-4-4-4---
---6-6-6-6-6-6-6-6-6/4-4-4-4-4-4-4-4--1-1-1-1-1-1-1-1--2-2-2-2-2-2-2-2---
[ Tab from: http://www.guitartabs.cc/tabs/a/adema/betrayed_me_tab.html ]
----------------------------------------------------------------------------
----------------------------------------------------------------------------
----------------------------------------------------------------------------
----------------------------------------------------------------------------
---8-8-8-8-8-8-8-8-8/10-10-10-10-10-10-10-10/3-3-3-3-3-3-3-3/4-4-4-4-4-4-4-4
---6-6-6-6-6-6-6-6-6/8--8--8--8--8--8--8--8-/1-1-1-1-1-1-1-1/2-2-2-2-2-2-2-2

2ND PRE-CHORUS
-------------------------------------------------------------------------
-------------------------------------------------------------------------
-------------------------------------------------------------------------
------------------------1111---1111----11--3333--3333--33--4444--4444--44
11-4444-11-4444-1144-33------33------33--44----44----44--66----66----66--
-------------------------------------------------------------------------

REPEAT CHORUS BUT END IT LIKE THIS
--------------------------------------------------------
--------------------------------------------------------
--------------------------------------------------------
--------------------------------------------------------
---8888---8888-888888--8888---8888-888888---8888-8888---
---6666---6696-669666--6666---6696-669666---6666-6666---
Comments