Adele - Tired Chords & Tabs

 

Adele Chords & Tabs

Version: 1 Type: Bass Tab 0 ratings
1 star 2 stars 3 stars 4 stars 5 stars
comments

Tired Bass Tab

Adele - Tired

Intro
----------------------------|
-7/9------4-----------------|
--------------------6-6-----|
-----7------2---4-4-----7---|

Main
----------------------------|
-7/9---------------6--------|
----------------------6-6---|
-----7---2-2---2/4----------|

Chorus
----------------|
----------------|
-7-7------------|
-------7-7--4-4-|

------------|
------------|
-7-7--6666--|
------------|

PreMain
--------------|
-7/9------4---|
--------------|
-----7------2-|
[ Tab from: http://www.guitartabs.cc/tabs/a/adele/tired_btab.html ]
Main
Chorus 2
----------------|
----------------|
-7-7------------|
-------7-7--4-4-|

------------|
------------|
-7-7--6666--|
------------|

-------------------|
-------------------|
-7-7--7-7----------|
----------7-7--4-4-|

----------------|
----------------|
-7-7-7-7--6666--|
----------------|

Bridge
--------------------------------------------|
--------------------------------------------|
--------------------------------------------|
-2222222222222222--44444444--00000000-------|

PreMain
--------------|
-7/9------4---|
--------------|
-----7------2-|

Main
Chorus 2 to end
Comments