Adele - Someone Like You Chords & Tabs

 

Adele Chords & Tabs

Version: 12 Type: Tab 2 ratings
1 star 2 stars 3 stars 4 stars 5 stars
comments

Someone Like You Tab

it's partially the same as what xlienxx did here:
http://tabs.ultimate-guitar.com/a/adele/someone_like_you_ver2_tab.htm
but here without capo
tabbed by: YJLintag
here goes =))

Intro & Verse:
E|---------------------------------------------------------------------------|
B|------5-------5-------5-------5-------5-------5-------5-------5------------|
G|----6---6---6---6---6---6---6---6---6---6---6---6---6---6---6---6----------|----
D|--7-------7-------7-------7-------6-------6-------6-------6----------------|   |
A|---------------------------------------------------------------------------|   |
E|---------------------------------------------------------------------------|   |
                                                                                4x
E|---------------------------------------------------------------------------|   |
B|------7-------7-------7-------7-------7-------7-------7-------7------------|   |
G|----6---6---6---6---6---6---6---6---7---7---7---7---7---7---7---7----------|   |
D|--4-------4-------4-------4-------7-------7-------7-------7----------------|----
A|---------------------------------------------------------------------------|
E|---------------------------------------------------------------------------|

------
yah... hope you enjoyed it... just go to that link before to know where the tabs 
are supposed to be in the song =))
Pre-chorus:
E|---------------------------------------------------------------------------|
B|------5-------5-------7-------7-------7-------7-------7-------7------------|
G|----6---6---6---6---6---6---6---6---7---7---7---7---7---7---7---7----------|  2x
D|--6-------6-------4-------4-------7-------7-------7-------7----------------|
A|---------------------------------------------------------------------------|
E|---------------------------------------------------------------------------|

1st Chorus:
E|---------------------------------------------------------------------------|1st Chorus:
B|------5-------5-------5-------5-------7-------7-------7-------7------------|  5x
G|----6---6---6---6---6---6---6---6---6---6---6---6---7---7---7---7----------|2nd Chorus:
D|--7-------7-------6-------6-------4-------4-------7-------7----------------|  4x
A|---------------------------------------------------------------------------|
E|---------------------------------------------------------------------------|

(Verse)
(Pre-chorus)
(2nd Chorus)


Bridge:
E|---------------------------------------------------------------------------|
B|------5-------5-------5-------5-------7-------7-------7-------7------------|
G|----6---6---6---6---6---6---6---6---6---6---6---6---6---6---6---6----------|
D|--6-------6-------6-------6------4-------4-------4-------4-----------------|
G|---------------------------------------------------------------------------|
E|---------------------------------------------------------------------------|
[ Tab from: http://www.guitartabs.cc/tabs/a/adele/someone_like_you_tab_ver_12.html ]
E|---------------------------------------------------------------------------|
B|----7-------7-------7-------7-------7-------7-------9-------9--------------|
G|--6---6---6---6---6---6---6---6---7---7---7---7---9---9---9---9------------|
D|4-------4-------4-------4-------9-------9------11------11-------11---------|
G|---------------------------------------------------------------------------|
E|---------------------------------------------------------------------------|

E|---------------------------------------------------------------------------|
B|------7-------7-------7-------7--------------------------------------------|
G|----7---7---7---7---7---7---7---7------------------------------------------|
D|--7-------7-------7-------7------------------------------------------------|
G|---------------------------------------------------------------------------|
E|---------------------------------------------------------------------------|

3rd Chorus:
(plucking)
E|---------------------------------------------------------------------------|
B|--5---------------5------------------7-----------------7-------------------|
G|--6---------------6------------------6-----------------7-------------------|  2x
D|--7---------------7------------------4-----------------7-------------------|
G|---------------------------------------------------------------------------|
E|---------------------------------------------------------------------------|
(tab again, slower)
E|---------------------------------------------------------------------------|
B|-------------5-----------------------5-------------------------------------|
G|--------6---------6-----------6--------------6-----------------------------|----
D|--7---------------------6--------------------------------------------------|   |
G|---------------------------------------------------------------------------|   |
E|---------------------------------------------------------------------------|   |
                                                                                2x
E|---------------------------------------------------------------------------|   |
B|-------------7-----------------------7-------------------------------------|   |
G|--------6---------6-----------7--------------7h----------------------------|   |
D|--4---------------------7--------------------------------------------------|----
G|---------------------------------------------------------------------------|
E|---------------------------------------------------------------------------|

Outro:
E|---------------------------------------------------------------------------|
B|------5h-------------------------------------------------------------------|
G|------6h-------------------------------------------------------------------|
D|------7h-------------------------------------------------------------------|
G|---------------------------------------------------------------------------|
E|---------------------------------------------------------------------------|
Comments