Adele - Rumour Has It Chords & Tabs

 

Adele Chords & Tabs

Version: 1 Type: Tab 0 ratings
1 star 2 stars 3 stars 4 stars 5 stars
comments

Rumour Has It Tab

Drop D (DBGDAE)

0:37

D|-0-0-0-0---5-5-5-5---8-8---7-7---5 |
B|-0-0-0-0---5-5-5-5---8-8---7-7---5-|
G|-0-0-0-0---5-5-5-5---8-8---7-7---5-|
D|---------------------------------7-|
A|---------------------------------6-|
E|-----------------------------------|

Then 0:54

D|----0--5--0--3---|
B|-5---------------|
G|-----------------| 3X
D|-----------------| 
A|-----------------|
E|-----------------|

D|----0--5--0--3-5-6-5--|
B|-5--------------------|
G|----------------------| 1X
D|----------------------| 
A|----------------------|
E|----------------------|

You play it 2 times

Then the solo

D|---------------------|
B|---------------------|
G|----------------12---| 
D|-14-12-14-12---------| 
A|---------------------|
E|---------------------|

Again 2 times;

[ Tab from: http://www.guitartabs.cc/tabs/a/adele/rumour_has_it_tab.html ]
D|----0--5--0--3---|
B|-5---------------|
G|-----------------| 3X
D|-----------------| 
A|-----------------|
E|-----------------|

D|----0--5--0--3-5-6-5-----|
B|-5-----------------------|
G|-------------------------| 1X
D|-------------------------| 
A|-------------------------|
E|-------------------------|

'clapping'


D|-0-0-0-0---5-5-5-5---8-8---7-7---5 |
B|-0-0-0-0---5-5-5-5---8-8---7-7---5-|
G|-0-0-0-0---5-5-5-5---8-8---7-7---5-|
D|---------------------------------7-|
A|---------------------------------6-|
E|-----------------------------------|

Again

D|----0--5--0--3-----|
B|-5-----------------|
G|-------------------| 3X
D|-------------------| 
A|-------------------|
E|-------------------|

D|----0--5--0--3-5-6-5-----|
B|-5-----------------------|
G|-------------------------| 1X
D|-------------------------| 
A|-------------------------|
E|-------------------------|
Comments