Adams Bryan - Summer Of 69 Chords & Tabs

 

Summer Of 69 Chords & Tabs

Adams Bryan Chords & Tabs

Version: 1 Type: Tab 0 ratings
1 star 2 stars 3 stars 4 stars 5 stars
comments

Summer Of 69 Tab

   
Brian Adams – Summer of 69
by: gonza
gserradasduarte@hotmail.com

Intro x2, verses and ending
[ Tab from: http://www.guitartabs.cc/tabs/a/adams_bryan/summer_of_69_tab.html ]
          D                                                  A
E|--------0---------2---------3---------2----------0---2------------------------------------------------------|
B|------------3---------3---------3---------3----------------0---------2---------3---------2----------0---2---|
G|---------------2----------2---------2---------2----------------2---------2---------2---------2--------------|
D|--------0----------------------------------------------------------2---------2---------2---------2----------|
A|-----------------------------------------------------------0------------------------------------------------|
E|------------------------------------------------------------------------------------------------------------|

Chorus
    Bm              A               D               G
|----2--------------0---------------2---------------3----------------------------------|
|----3--------------2---------------3---------------3----------------------------------|
|----4--------------2---------------2---------------4----------------------------------|
|----4--------------2---------------0---------------5----------------------------------|
|----2--------------0---------------0---------------5----------------------------------|
|----2--------------0---------------0---------------3----------------------------------|

Play the basses notes strongly and let them sound. The tab is very good. Enjoy. Gonza
Comments