Adams Bryan - Its Only Love Chords & Tabs

 

Its Only Love Chords & Tabs

Adams Bryan Chords & Tabs

Version: 1 Type: Tab 4 ratings
1 star 2 stars 3 stars 4 stars 5 stars
comments

Its Only Love Tab

                      Bryan Adams - It's Only Love                                  
                               by digiti



RHYTHM GUITAR:
                                                                          
E||--------------------|------------------------|--1---1-x-x-1--1--------|
B||--3------3----------|--3------3--------------|--1---1-x-x-1--1--------|
G||--2------0----------|--2------3--------------|--2---2-x-x-2--2--------|
D||--0------x----------|--2------3--------3-----|--3---3-x-x-3--3--------|
A||---------3----------|--0------1----3/5----5--|--3---3-x-x-3--3--------|
E||--------------------|------------------------|--1---1-x-x-1--1--------|


                                                                       
--1---1-x-x-1--1--------|--------------------|------------------------|
--1---1-x-x-1--1--------|--3------3----------|--3------3--------------|
--2---2-x-x-2--2--------|--2------0----------|--2------3--------------|
--3---3-x-x-3--3--------|--0------x----------|--2------3--------3-----|
--3---3-x-x-3--3--------|---------3----------|--0------1----3/5----5--|
--1---1-x-x-1--1--------|--------------------|------------------------|


                                                                       
--1---1-x-x-1--1--------|--1---1-x-x-1--1--------|--------------------|
--1---1-x-x-1--1--------|--1---1-x-x-1--1--------|--3------3----------|
--2---2-x-x-2--2--------|--2---2-x-x-2--2--------|--2------0----------|
--3---3-x-x-3--3--------|--3---3-x-x-3--3--------|--0------x----------|
--3---3-x-x-3--3--------|--3---3-x-x-3--3--------|---------3----------|
--1---1-x-x-1--1--------|--1---1-x-x-1--1--------|--------------------|


                                                                           
------------------------|--1---1-x-x-1--1--------|--1---1-x-x-1--1--------|
--3------3--------------|--1---1-x-x-1--1--------|--1---1-x-x-1--1--------|
--2------3--------------|--2---2-x-x-2--2--------|--2---2-x-x-2--2--------|
--2------3--------3-----|--3---3-x-x-3--3--------|--3---3-x-x-3--3--------|
--0------1----3/5----5--|--3---3-x-x-3--3--------|--3---3-x-x-3--3--------|
------------------------|--1---1-x-x-1--1--------|--1---1-x-x-1--1--------|


                                                                       
--------------------|------------------------|--1---1-x-x-1--1--------|
--3------3----------|--3------3--------------|--1---1-x-x-1--1--------|
--2------0----------|--2------3--------------|--2---2-x-x-2--2--------|
--0------x----------|--2------3--------3-----|--3---3-x-x-3--3--------|
---------3----------|--0------1----3/5----5--|--3---3-x-x-3--3--------|
--------------------|------------------------|--1---1-x-x-1--1--------|


                                                                       
--1---1-x-x-1--1--------|--------------------|------------------------|
--1---1-x-x-1--1--------|--3------3----------|--3------3--------------|
--2---2-x-x-2--2--------|--2------0----------|--2------3--------------|
--3---3-x-x-3--3--------|--0------x----------|--2------3--------3-----|
--3---3-x-x-3--3--------|---------3----------|--0------1----3/5----5--|
--1---1-x-x-1--1--------|--------------------|------------------------|


                                                                       
--1---1-x-x-1--1--------|--1---1-x-x-1--1--------|--------------------|
--1---1-x-x-1--1--------|--1---1-x-x-1--1--------|--3------3----------|
--2---2-x-x-2--2--------|--2---2-x-x-2--2--------|--2------0----------|
--3---3-x-x-3--3--------|--3---3-x-x-3--3--------|--0------x----------|
--3---3-x-x-3--3--------|--3---3-x-x-3--3--------|---------3----------|
--1---1-x-x-1--1--------|--1---1-x-x-1--1--------|--------------------|


                                                                           
------------------------|--1---1-x-x-1--1--------|--1---1-x-x-1--1--------|
--3------3--------------|--1---1-x-x-1--1--------|--1---1-x-x-1--1--------|
--2------3--------------|--2---2-x-x-2--2--------|--2---2-x-x-2--2--------|
--2------3--------3-----|--3---3-x-x-3--3--------|--3---3-x-x-3--3--------|
--0------1----3/5----5--|--3---3-x-x-3--3--------|--3---3-x-x-3--3--------|
------------------------|--1---1-x-x-1--1--------|--1---1-x-x-1--1--------|


                                                                       
--------------------|------------------------|--1---1-x-x-1--1--------|
--3------3----------|--3------3--------------|--1---1-x-x-1--1--------|
--2------0----------|--2------3--------------|--2---2-x-x-2--2--------|
--0------x----------|--2------3--------3-----|--3---3-x-x-3--3--------|
---------3----------|--0------1----3/5----5--|--3---3-x-x-3--3--------|
--------------------|------------------------|--1---1-x-x-1--1--------|


                                                                       
--1---1-x-x-1--1--------|--------------------|------------------------|
--1---1-x-x-1--1--------|--3------3----------|--3------3--------------|
--2---2-x-x-2--2--------|--2------0----------|--2------3--------------|
--3---3-x-x-3--3--------|--0------x----------|--2------3--------3-----|
--3---3-x-x-3--3--------|---------3----------|--0------1----3/5----5--|
--1---1-x-x-1--1--------|--------------------|------------------------|


                                                                       
--1---1-x-x-1--1--------|--1---1-x-x-1--1--------|--------------------|
--1---1-x-x-1--1--------|--1---1-x-x-1--1--------|--3------3----------|
--2---2-x-x-2--2--------|--2---2-x-x-2--2--------|--2------0----------|
--3---3-x-x-3--3--------|--3---3-x-x-3--3--------|--0------x----------|
--3---3-x-x-3--3--------|--3---3-x-x-3--3--------|---------3----------|
--1---1-x-x-1--1--------|--1---1-x-x-1--1--------|--------------------|


                                                                           
------------------------|--1---1-x-x-1--1--------|--1---1-x-x-1--1--------|
--3------3--------------|--1---1-x-x-1--1--------|--1---1-x-x-1--1--------|
--2------3--------------|--2---2-x-x-2--2--------|--2---2-x-x-2--2--------|
--2------3--------3-----|--3---3-x-x-3--3--------|--3---3-x-x-3--3--------|
--0------1----3/5----5--|--3---3-x-x-3--3--------|--3---3-x-x-3--3--------|
------------------------|--1---1-x-x-1--1--------|--1---1-x-x-1--1--------|


                                                                       
--------------------|------------------------|--1---1-x-x-1--1--------|
--3------3----------|--3------3--------------|--1---1-x-x-1--1--------|
--2------0----------|--2------3--------------|--2---2-x-x-2--2--------|
--0------x----------|--2------3--------3-----|--3---3-x-x-3--3--------|
---------3----------|--0------1----3/5----5--|--3---3-x-x-3--3--------|
--------------------|------------------------|--1---1-x-x-1--1--------|


                                                                           
--1---1-x-x-1--1--------|------------------------|------------------------|
--1---1-x-x-1--1--------|------------------------|------------------------|
--2---2-x-x-2--2--------|--5---5-5--5--5----5----|--7---7-7--7--7----7----|
--3---3-x-x-3--3--------|--5---5-5--5--5----5----|--7---7-7--7--7----7----|
--3---3-x-x-3--3--------|--3---3-3--3--3----3----|--5---5-5--5--5----5----|
--1---1-x-x-1--1--------|------------------------|------------------------|


                                                                        
-----------------------------------|-----------------------------------|
--10h11--11-x-x-10h11--11-x-x-x----|--10h11--11-x-x-10h11--11-x-x-x----|
--10-----10-x-x-10-----10-x-x-x----|--10-----10-x-x-10-----10-x-x-x----|
--10h12--12-x-x-10h12--12-x-x-x----|--10h12--12-x-x-10h12--12-x-x-x----|
-----------------------------------|-----------------------------------|
-----------------------------------|-----------------------------------|


                                                  
------------------------|------------------------|
------------------------|------------------------|
--5---5-5--5--5----5----|--7---7-7--7--7----7----|
--5---5-5--5--5----5----|--7---7-7--7--7----7----|
--3---3-3--3--3----3----|--5---5-5--5--5----5----|
------------------------|------------------------|


                                                               
-----------------------------------|--------------------------|
--10h11--11-x-x-10h11--11-x-x-x----|--11---11---11--11--------|
--10-----10-x-x-10-----10-x-x-x----|--10---10---10--10--------|
--10h12--12-x-x-10h12--12-x-x-x----|--12---12---12--12--------|
-----------------------------------|--------------------------|
-----------------------------------|--------------------------|


                                                                 
------------------|--------------------|------------------------|
------------------|--3------3----------|--3------3--------------|
------------------|--2------0----------|--2------3--------------|
------------------|--0------x----------|--2------3--------3-----|
------------------|---------3----------|--0------1----3/5----5--|
------------------|--------------------|------------------------|


                                                                       
--1---1-x-x-1--1--------|--1---1-x-x-1--1--------|--------------------|
--1---1-x-x-1--1--------|--1---1-x-x-1--1--------|--3------3----------|
--2---2-x-x-2--2--------|--2---2-x-x-2--2--------|--2------0----------|
--3---3-x-x-3--3--------|--3---3-x-x-3--3--------|--0------x----------|
--3---3-x-x-3--3--------|--3---3-x-x-3--3--------|---------3----------|
--1---1-x-x-1--1--------|--1---1-x-x-1--1--------|--------------------|


                                                                           
------------------------|--1---1-x-x-1--1--------|--1---1-x-x-1--1--------|
--3------3--------------|--1---1-x-x-1--1--------|--1---1-x-x-1--1--------|
--2------3--------------|--2---2-x-x-2--2--------|--2---2-x-x-2--2--------|
--2------3--------3-----|--3---3-x-x-3--3--------|--3---3-x-x-3--3--------|
--0------1----3/5----5--|--3---3-x-x-3--3--------|--3---3-x-x-3--3--------|
------------------------|--1---1-x-x-1--1--------|--1---1-x-x-1--1--------|


                                                                       
--------------------|------------------------|--1---1-x-x-1--1--------|
--3------3----------|--3------3--------------|--1---1-x-x-1--1--------|
--2------0----------|--2------3--------------|--2---2-x-x-2--2--------|
--0------x----------|--2------3--------3-----|--3---3-x-x-3--3--------|
---------3----------|--0------1----3/5----5--|--3---3-x-x-3--3--------|
--------------------|------------------------|--1---1-x-x-1--1--------|


                                                                       
--1---1-x-x-1--1--------|--------------------|------------------------|
--1---1-x-x-1--1--------|--3------3----------|--3------3--------------|
--2---2-x-x-2--2--------|--2------0----------|--2------3--------------|
--3---3-x-x-3--3--------|--0------x----------|--2------3--------3-----|
--3---3-x-x-3--3--------|---------3----------|--0------1----3/5----5--|
--1---1-x-x-1--1--------|--------------------|------------------------|


                                                                       
--1---1-x-x-1--1--------|--1---1-x-x-1--1--------|--------------------|
--1---1-x-x-1--1--------|--1---1-x-x-1--1--------|--3------3----------|
--2---2-x-x-2--2--------|--2---2-x-x-2--2--------|--2------0----------|
--3---3-x-x-3--3--------|--3---3-x-x-3--3--------|--0------x----------|
--3---3-x-x-3--3--------|--3---3-x-x-3--3--------|---------3----------|
--1---1-x-x-1--1--------|--1---1-x-x-1--1--------|--------------------|


                                                                           
------------------------|--1---1-x-x-1--1--------|--1---1-x-x-1--1--------|
--3------3--------------|--1---1-x-x-1--1--------|--1---1-x-x-1--1--------|
--2------3--------------|--2---2-x-x-2--2--------|--2---2-x-x-2--2--------|
--2------3--------3-----|--3---3-x-x-3--3--------|--3---3-x-x-3--3--------|
--0------1----3/5----5--|--3---3-x-x-3--3--------|--3---3-x-x-3--3--------|
------------------------|--1---1-x-x-1--1--------|--1---1-x-x-1--1--------|


                                                                       
--------------------|------------------------|--1---1-x-x-1--1--------|
--3------3----------|--3------3--------------|--1---1-x-x-1--1--------|
--2------0----------|--2------3--------------|--2---2-x-x-2--2--------|
--0------x----------|--2------3--------3-----|--3---3-x-x-3--3--------|
---------3----------|--0------1----3/5----5--|--3---3-x-x-3--3--------|
--------------------|------------------------|--1---1-x-x-1--1--------|


                                                                       
--1---1-x-x-1--1--------|--------------------|------------------------|
--1---1-x-x-1--1--------|--3------3----------|--3------3--------------|
--2---2-x-x-2--2--------|--2------0----------|--2------3--------------|
--3---3-x-x-3--3--------|--0------x----------|--2------3--------3-----|
--3---3-x-x-3--3--------|---------3----------|--0------1----3/5----5--|
--1---1-x-x-1--1--------|--------------------|------------------------|


                                                                       
--1---1-x-x-1--1--------|--1---1-x-x-1--1--------|--------------------|
--1---1-x-x-1--1--------|--1---1-x-x-1--1--------|--3------3----------|
--2---2-x-x-2--2--------|--2---2-x-x-2--2--------|--2------0----------|
--3---3-x-x-3--3--------|--3---3-x-x-3--3--------|--0------x----------|
--3---3-x-x-3--3--------|--3---3-x-x-3--3--------|---------3----------|
--1---1-x-x-1--1--------|--1---1-x-x-1--1--------|--------------------|


                                                                            
------------------------|--1---1-x-x-1--1--------|--1---1-x-x-1--1--------||
--3------3--------------|--1---1-x-x-1--1--------|--1---1-x-x-1--1--------||
--2------3--------------|--2---2-x-x-2--2--------|--2---2-x-x-2--2--------||
--2------3--------3-----|--3---3-x-x-3--3--------|--3---3-x-x-3--3--------||
--0------1----3/5----5--|--3---3-x-x-3--3--------|--3---3-x-x-3--3--------||
------------------------|--1---1-x-x-1--1--------|--1---1-x-x-1--1--------||




















LEAD GUITAR:
[ Tab from: http://www.guitartabs.cc/tabs/a/adams_bryan/its_only_love_tab.html ]
E||------|------|------|--------------------10--|----------------------|
B||------|------|------|--------------10h13-----|--13b-----13~---------|
G||------|------|------|------------------------|----------------------|
D||------|------|------|------------------------|----------------------|
A||------|------|------|------------------------|----------------------|
E||------|------|------|------------------------|----------------------|


                                                              
------------------10------------|----------------------------|
----------------------13--------|----------------------------|
----------10--12b---------12r---|--10------------------------|
----10h12-----------------------|--------12-11-10~-----------|
--------------------------------|----------------------12/---|
--------------------------------|----------------------------|


                                                                           
-------------------------------------|------------------10~---------------|
-------------------------------------|--13b-13~---13-10-------13-10-13-10-|
-------------------------------------|------------------------------------|
-------------------10--10--12h10-----|------------------------------------|
-----------8-10/12---------------12--|------------------------------------|
----8-9-10---------------------------|------------------------------------|


                                                                  
--13--15b---15-13-15~-------|----15r-13--15--15r-13----13-13-----|
----------------------------|-----------------------15-------15--|
----------------------------|------------------------------------|
----------------------------|------------------------------------|
----------------------------|------------------------------------|
----------------------------|------------------------------------|


                                                                               
--------------------------------------------|----------------------|----------|
--------15----15/13-13-13-----13--13--------|----------------------|----------|
--12/14----12-------12-12-12b-----12-10-----|----------------------|----------|
----------------------------------------12~-|--12~-----12/---------|----------|
--------------------------------------------|----------------------|----------|
--------------------------------------------|----------------------|----------|


                                                                  
----------|----------|----------|----------|----------|----------|
----------|----------|----------|----------|----------|----------|
----------|----------|----------|----------|----------|----------|
----------|----------|----------|----------|----------|----------|
----------|----------|----------|----------|----------|----------|
----------|----------|----------|----------|----------|----------|


                                                                  
----10------------------------|----10----------------------------|
----10-13-10------------------|----10-13-10----------------------|
-------------12r-10-12~-------|-------------12r-10-12~10---------|
------------------------------|--------------------------12~-----|
------------------------------|----------------------------------|
------------------------------|----------------------------------|


                                         
----------------------------------------|
----------------------------------------|
--------------------10-10-----10-10-----|
----10-12-10-12-12--------12--------12--|
----------------------------------------|
----------------------------------------|


                                                                                
--------------------------------------------------------------------------10----
--------------------------------------------------10h13h10h13h10h13h10h13-10--10
--------------------------10h12h10h12h10h12h10h12-------------------------------
--10h12h10h12h10h12h10h12-------------------------------------------------------
--------------------------------------------------------------------------------
--------------------------------------------------------------------------------


                                                                              
--13-10~--------------|----------|----------|----------|----------|----------|
----------------------|----------|----------|----------|----------|----------|
----------------------|----------|----------|----------|----------|----------|
----------------------|----------|----------|----------|----------|----------|
----------------------|----------|----------|----------|----------|----------|
----------------------|----------|----------|----------|----------|----------|


                                                                         
----------|----------|--------------------------------------------------|
----------|----------|--------13-------13-------13-------13-------13----|
----------|----------|--12b12b---12b12b---12b12b---12b12b---12b12b---12b|
----------|----------|--------------------------------------------------|
----------|----------|--------------------------------------------------|
----------|----------|--------------------------------------------------|


                                     
------------------------------------|
-----13-------13--------------------|
--12b---12b12b---12b12h10-12~-------|
------------------------------------|
------------------------------------|
------------------------------------|


                                               
----------------10----------10----------10----|
-------10-10-10-10----10-10-10----10-10-10----|
----12b------------12b---------12b---------12b|
----------------------------------------------|
----------------------------------------------|
----------------------------------------------|


                                                                              
--10----10----10----10-10-13-12-10----10-----------|-------------------------|
-----10----10----10-10-10-13-12-10-13b10-13--------|-------------------------|
--------------------------------------------12r-10-|--------10--x----5b-5~---|
---------------------------------------------------|--12~--------------------|
---------------------------------------------------|-------------------------|
---------------------------------------------------|-------------------------|


                                                                   
-------------------------|----------------------------------------|
-------------------------|----------------------------------------|
-------------------------|--------------------------10--10~-------|
----5b-5~-----3--5h7-7-7-|--10-------10-------10---------------10-|
-------------------------|-----12-12----12-12----12---------------|
-------------------------|----------------------------------------|


                                                            
----------------------------------|------------------------|
----------------------13----13----|------------------------|
--10-------10-----10--12b---12b---|--5---5-5--5--5----5----|
-----10-10-----10-----------------|--5---5-5--5--5----5----|
----------------------------------|--3---3-3--3--3----3----|
----------------------------------|------------------------|


                                                             
------------------------|-----------------------------------|
------------------------|--10h11--11-x-x-10h11--11-x-x-x----|
--7---7-7--7--7----7----|--10-----10-x-x-10-----10-x-x-x----|
--7---7-7--7--7----7----|--10h12--12-x-x-10h12--12-x-x-x----|
--5---5-5--5--5----5----|-----------------------------------|
------------------------|-----------------------------------|


                                                             
-----------------------------------|------------------------|
--10h11--11-x-x-10h11--11-x-x-x----|------------------------|
--10-----10-x-x-10-----10-x-x-x----|--5---5-5--5--5----5----|
--10h12--12-x-x-10h12--12-x-x-x----|--5---5-5--5--5----5----|
-----------------------------------|--3---3-3--3--3----3----|
-----------------------------------|------------------------|


                                                             
------------------------|-----------------------------------|
------------------------|--10h11--11-x-x-10h11--11-x-x-x----|
--7---7-7--7--7----7----|--10-----10-x-x-10-----10-x-x-x----|
--7---7-7--7--7----7----|--10h12--12-x-x-10h12--12-x-x-x----|
--5---5-5--5--5----5----|-----------------------------------|
------------------------|-----------------------------------|


                                                                               
--------------------------|------------------|----------|----------|----------|
--11---11---11--11--------|------------------|----------|----------|----------|
--10---10---10--10--------|------------------|----------|----------|----------|
--12---12---12--12--------|------------------|----------|----------|----------|
--------------------------|------------------|----------|----------|----------|
--------------------------|------------------|----------|----------|----------|


                                                            
----------|--------------------|---------------------------|
----------|--------------------|---------------------------|
----------|------------14r-----|--12h14h12/10~-------------|
----------|--------------------|---------------------------|
----------|--------------------|---------------------------|
----------|--------------------|---------------------------|


                                                            
--------------------------------|--------------------------|
--------13h10-13h10-------------|--------------------------|
---------------------12r-10-----|--------10--12~-----------|
----------------------------12--|--10h12-------------------|
--------------------------------|--------------------------|
--------------------------------|--------------------------|


                                                                       
------------------------10-----10----|---10-----10----10----13~-------|
----------10-13-10-13------13-----13-|------13-----13----13-----------|
--12/--------------------------------|--------------------------------|
-------------------------------------|--------------------------------|
-------------------------------------|--------------------------------|
-------------------------------------|--------------------------------|


                                                              
----------------------|--------------------------------------|
------------13---13---|--13--13----13--13--13--13----13------|
------------12b--12b--|--12r-10----10--12--12r-10----10------|
----------------------|---------12----------------12-----12~-|
----------------------|--------------------------------------|
----------------------|--------------------------------------|


                                                           
------------------|------------------|------15~-----------|
------------------|------------------|--------------------|
------------------|------------------|--------------------|
------------------|------------------|--------------------|
------------------|------------------|--------------------|
------------------|------------------|--------------------|


                                                                
----15b-13-15----13-----------------------|--------------------|
--------------15----13-15----13-----------|--------------------|
--------------------------14----14-12r-10-|--------------------|
------------------------------------------|--12~---------------|
------------------------------------------|--------------------|
------------------------------------------|--------------------|


                                                         
------------------|------------------|------------------|
------------------|------------------|------------------|
------------------|------------------|------------------|
------------------|------------------|------------------|
------------------|------------------|------------------|
------------------|------------------|------------------|


                                                      
----12r---------12--------|--------------------------|
----12r---------12--10----|--------------------------|
-----------------------12~|------------------10-12b--|
--------------------------|------------10-12---------|
--------------------------|--------------------------|
--------------------------|--------------------------|


                                                                
----------------------------------|--------------------13------|
----13-------------------13-------|-----------------------15~--|
--------12r-10----10-12b----12~---|--12b---12b---12r-----------|
---------------12-----------------|----------------------------|
----------------------------------|----------------------------|
----------------------------------|----------------------------|


                                                           
----------------------------|-----------------------------|
----------------------------|-----------------------------|
--5b---------5--5--5--5--5--|--5--5--2--0------------7/12-|
----------------------------|----------------3----3/------|
----------------------------|-----------------------------|
----------------------------|-----------------------------|


                                         
----------------------------------------|
----------------------------------------|
--10------------------------------------|
----------------------10----10--10--12--|
-----------8-10-10/12----12-------------|
------8h10------------------------------|


                                                                           
----------------------------------------|---------------------------------|
----------------------10-10-10----------|---------------------------------|
----------------------10-10-10--12~--10-|--12~--10-------------10---------|
--x-x-10/12-12----10--10-10-10----------|----------10--12------10---------|
---------------12-----------------------|------------------12------10/--8~|
----------------------------------------|---------------------------------|


                                                               
---------------------------------|----------------------------|
---------------------------------|----------------------------|
---------------------------------|--10---10-x-x-10--10/-------|
------10-------------------------|--10---10-x-x-10--10/-------|
--12------10-8-10~--------8------|--8----8--x-x-8---8/--------|
---------------------8/10----10--|----------------------------|


                              
----------------------------||
----------------------------||
--10---10-x-x-10--10/-------||
--10---10-x-x-10--10/-------||
--8----8--x-x-8---8/--------||
----------------------------||
Comments