Adam Sandler - Somebody Kill Me Chords & Tabs

 

Somebody Kill Me Chords & Tabs

Adam Sandler Chords & Tabs

Version: 1 Type: Tab 0 ratings
1 star 2 stars 3 stars 4 stars 5 stars
comments

Somebody Kill Me Tab

   
 play this every time he stops and sings slowly
|------------------------------------------------------|
|------------------------------222222222222------------|
|--11111111------22222222------222222222222------------|
|--22222222------11111111------222222222222------------|
|--22222222------22222222------------------------------|
|------------------------------------------------------|
   <----------------PM---------------------------------|
[ Tab from: http://www.guitartabs.cc/tabs/a/adam_sandler/somebody_kill_me_tab.html ]
 Play this through out the song except for when the palm muting bit comes in
 (E)     (B7)    (A)
|-----------------------------------------------------|
|------------------2----------------------------------|
|--1-------2-------2----------------------------------|
|--2-------1-------2----------------------------------|
|--2-------2------------------------------------------|
|-----------------------------------------------------|


You don't know how much i need you
While your near me i don't feel blue
And when we kissed i know you need me two
I can't believe i found a love that's so pure and true

But it all was bullshit!!!
It was a god damn joke!!!
And when i think of you and i
I hope you fucking choke!!!

I hope you're glad with what you've done to me
I lay in bed all day long feeling meloncholy
You left me here all alone tears running constantly

Oh somebody kill me please!!!
Somebody kill me please!!!
I'm on my knees pretty pretty please
Kill me!!!
I want to die!!!
Put a bullet in my head!!!
Comments