Adam Sandler - Mr Bake O Chords & Tabs

 

Mr Bake O Chords & Tabs

Adam Sandler Chords & Tabs

Version: 1 Type: Tab 0 ratings
1 star 2 stars 3 stars 4 stars 5 stars
comments

Mr Bake O Tab

Artist: Adam Sandler
Song: Mr. Bake-O
ultimate-guitar
tabbed by Mike

This song is funny, but really screwed up.
It's easy to play, but I only know the rythm.
Play this song with a tremolo pedal.
Your on your own for lead and lyrics.
Good luck and enjoy!


INTRO

E-----------------------------------------------------|
B-----------------------------------------------------|
G-----------------------------------------------------|
D-----3-5-5-5-5-5-2-2-2-2-2-----3-5-5-5-5-5-2-2-2-2-2-|
A-----3-5-5-5-5-5-2-2-2-2-2-----3-5-5-5-5-5-2-2-2-2-2-|
E-----1-3-3-3-3-3-0-0-0-0-0-----1-3-3-3-3-3-0-0-0-0-0-|


VERSE

E-------------------------------------------------|
B-------------------------------------------------|
G-------------------------------------------------|
D-----5-5-5-5-5-2-2-2-2-2-----5-5-5-5-5-2-2-2-2-2-|
A-----5-5-5-5-5-2-2-2-2-2-----5-5-5-5-5-2-2-2-2-2-|
E-----3-3-3-3-3-0-0-0-0-0-----3-3-3-3-3-0-0-0-0-0-|

E-------------------------------------------------|
B-------------------------------------------------|
G-------------------------------------------------|
D-----5-5-5-5-5-2-2-2-2-2-----5-5-5-5-5-2-2-2-2-2-|
A-----5-5-5-5-5-2-2-2-2-2-----5-5-5-5-5-2-2-2-2-2-|
E-----3-3-3-3-3-0-0-0-0-0-----3-3-3-3-3-0-0-0-0-0-|


CHORUS
[ Tab from: http://www.guitartabs.cc/tabs/a/adam_sandler/mr_bake_o_tab.html ]
E----------------------------------------------------------------|
B----------------------------------------------------------------|
G---------5-5-7--7-7-7-7-7-7-7-7-7-7-7---------5-5-7--7-7-7-7-7\-|
D-----5-5-5-5-7--7-7-7-7-7-7-7-7-7-7-7-----5-5-5-5-7--7-7-7-7-7\-|
A-----5-5-3-3-5--5-5-5-5-5-5-5-5-5-5-5-----5-5-3-3-5--5-5-5-5-5\-|
E-----3-3----------------------------------3-3-------------------|

E----------------------------------------------------------------------|
B----------------------------------------------------------------------|
G---------5-5-7--7-7-7-7-7-7-7-7-7-7-7---------5-5-7--7-7-7-7-7--7-7-7-|
D-----5-5-5-5-7--7-7-7-7-7-7-7-7-7-7-7-----5-5-5-5-7--7-7-7-7-7--7-7-7-|
A-----5-5-3-3-5--5-5-5-5-5-5-5-5-5-5-5-----5-5-3-3-5--5-5-5-5-5--5-5-5-|
E-----3-3----------------------------------3-3-------------------------|


BRIDGE

E---------------------------------------------------------------------|
B---------------------------------------------------------------------|
G-----5-5-5-5-5-5-5-5-5-5-5-5-5-5-5-5-7-7-7-7-7-7-7-7-7-7-7-7-7-7-7-7-|
D-----5-5-5-5-5-5-5-5-5-5-5-5-5-5-5-5-7-7-7-7-7-7-7-7-7-7-7-7-7-7-7-7-|
A-----3-3-3-3-3-3-3-3-3-3-3-3-3-3-3-3-5-5-5-5-5-5-5-5-5-5-5-5-5-5-5-5-|
E---------------------------------------------------------------------|

E------------------------------------------------------------------------|
B------------------------------------------------------------------------|
G-----5-5-5-5-5-5-5-5-5-5-5-5-5-5-5-5-7-7-7-7-7-7-7-7-7-7-7-7-7-7-7-7----|
D-----5-5-5-5-5-5-5-5-5-5-5-5-5-5-5-5-7-7-7-7-7-7-7-7-7-7-7-7-7-7-7-7--5-|
A-----3-3-3-3-3-3-3-3-3-3-3-3-3-3-3-3-5-5-5-5-5-5-5-5-5-5-5-5-5-5-5-5--5-|
E----------------------------------------------------------------------3-|


INTRO, VERSE, CHORUS, VERSE, CHORUS, BRIDGE
INTRO x 1/2, VERSE, CHORUS, VERSE, CHORUS
end the song on the power chord G
Comments