Adam Sandler - Grow Old With You Chords & Tabs

 

Grow Old With You Chords & Tabs

Adam Sandler Chords & Tabs

Version: 3 Type: Tab

Grow Old With You Tab

   
Love you britney. I really like this song it reminds me of me and my special someone so 
my first tab so i hope you like it. I may only be 15 but ya if i hear a good song I just 
to learn it so the struming is down,down,up,up,down,up,

Adam Sandler, wanna grow old with you

  I wanna.whenever.carry.all..
E|--------222222-111111-2222222-|
B|-222222-333333-222222-3333333-|
G|-222222-444444-333333-2222222-|
D|-222222-444444-333333---------|
A|--------222222-111111---------|
E|------------------------------|

E|---------------222222---------------|
B|-222222--------333333-222222--------|
G|-222222-111111-222222-222222-111111-|
D|-222222-222222--------222222-222222-|
A|--------222222---------------222222-|
E|------------------------------------|

E|--------222222-111111-222222-|
B|-222222-333333-222222-333333-|
G|-222222-444444-333333-222222-|
D|-222222-444444-333333--------|
A|--------222222-111111--------|
E|-----------------------------|

E|---------------222222-3---|
B|-222222--------333333-2-2-|
G|-222222-111111-222222-4---|
D|-222222-222222--------2-2-|
A|--------222222------------|
E|--------------------------|
[ Tab from: http://www.guitartabs.cc/tabs/a/adam_sandler/grow_old_with_you_tab_ver_3.html ]
E|-222222-222222---------------222222-222222-|
B|-333333-333333-222222-222222-333333-333333-|
G|-222222-222222-222222-222222-222222-222222-|
D|---------------222222-222222---------------|
A|-------------------------------------------|
E|-------------------------------------------|

E|--------2------|
B|--------3------|
G|-111111-2------|
D|-333333--------|
A|-333333--------|
E|---------------|

E|--------222222-111111-2222222-|
B|-222222-333333-222222-3333333-|
G|-222222-444444-333333-2222222-|
D|-222222-444444-333333---------|
A|--------222222-111111---------|
E|------------------------------|

E|---------------222222-|
B|-222222--------333333-|
G|-222222-111111-222222-|
D|-222222-222222--------|
A|--------222222--------|
E|----------------------|


  I wanna.you
E|--------2--------|
B|--------3-222222-|
G|-1------2-222222-|X2
D|-2--------222222-|
A|-2---------------|
E|-----------------|

E|--------2-|
B|--------3-|
G|-1------2-|
D|-2--------|
A|-2--------|
E|----------|

Lyrics:I wanna make you smile whenever you are sad
Carry you around when your arthritis is bad
All I wanna do is grow old with you.

I'll get your medicine when your tummy aches
build you a fire if the furnace breaks
Oh it could be so nice, growing old with you.

I'll miss you, kiss you,
give you my coat when you are cold.
Need you, feed you,

I'll even let ya hold the remote control.
So let me do the dishes in our kitchen sink.
Put you to bed when you've had too much to drink.
I could be the man who grows old with you.

I wanna grow old with you.
I wanna grow old with you.
I wanna grow old with you.