Adam Sandler - Grow Old With You Chords & Tabs

 

Grow Old With You Chords & Tabs

Adam Sandler Chords & Tabs

Version: 1 Type: Tab 0 ratings
1 star 2 stars 3 stars 4 stars 5 stars
comments

Grow Old With You Tab

Verse 1 and 2:
e|-000--7--99--99--10-10-10--1212121212--14-12------7--9999--7--9---777--10--9-----|
b|----------------------------------------------10------------------------------10-|
g|---------------------------------------------------------------------------------|
d|---------------------------------------------------------------------------------|
a|---------------------------------------------------------------------------------|
E|---------------------------------------------------------------------------------|
[ Tab from: http://www.guitartabs.cc/tabs/a/adam_sandler/grow_old_with_you_tab.html ]
Chours:
e|-----12------12------12121212--9--10--9----------12------12------77777-7--9--10--9-----|
b|-10------10------10----------------------10--10------10------10---------------------10-|
g|---------------------------------------------------------------------------------------|
d|---------------------------------------------------------------------------------------|
a|---------------------------------------------------------------------------------------|
E|---------------------------------------------------------------------------------------|

Verse 3:
e|--999999-99-101010--121212-1212--14--1212------7--999-7-9--777--10--9----------|
b|-------------------------------------------10--------------------------10------|
g|-------------------------------------------------------------------------------|
d|-------------------------------------------------------------------------------|
a|-------------------------------------------------------------------------------|
E|-------------------------------------------------------------------------------|
Comments