Action Pact - London Bouncers Chords & Tabs

 

London Bouncers Chords & Tabs

Action Pact Chords & Tabs

Version: 1 Type: Tab 0 ratings
1 star 2 stars 3 stars 4 stars 5 stars
comments

London Bouncers Tab

   
-----------------------------------------------------------------
London Bouncers - Action Pact
-----------------------------------------------------------------
Tabbed by: Dillon
Email: Angelic_oioi_upstart@yahoo.com

Tuning:Standard

There are two possible ways to play this song, I'll put them both here. Version one is
significantly easier in the verse the only problem being that the Em (E minor)chords
between every other chord are all open strings and if you're picky it doesn't sound just
right and can be annoying. Version 2 sounds better but is much more difficult, in the
verse, even for a skilled player as you have to move you're fingers up and down into
the different chords very rapidly. The chorus's don't vary greatly in difficulty between
the two, the positions given in version two may be more convinient. Play whichever one
you prefer and mix the two different chorus's and verses if you wish as they both sound
almost exactly the 
same.

(VERSION ONE)

Verse:
e|---------------------------------------------------------------|
B|---------------------------------------------------------------|
G|---------------------------------------------------------------|
D|-000-5-0-7-0-10-9----------------------------------------------|
A|-000-5-0-7-0-10-9----------------------------------------------|
E|-000-3-0-5-0--8-7----------------------------------------------|

Chorus:
e|---------------------------------------------------------------|
B|---------------------------------------------------------------|
G|---------------------------------------------------------------|
D|-1111111111111111111111111111-777-999--------------------------|
A|-1111111111111111111111111111-777-999--------------------------|
E|--9-9-9-9-9-9-9-9-9-9-9-9-9-9-555-777-(4 times)----------------|
[ Tab from: http://www.guitartabs.cc/tabs/a/action_pact/london_bouncers_tab.html ]
Chorus (cont.):
e|---------------------------------------------------------------|
B|---------------------------------------------------------------|
G|---------------------------------------------------------------|
D|-1111111111111111--14--13-11-----------------------------------|
A|-1111111111111111--14--13-11-----------------------------------|
E|--9-9-9-9-9-9-9-9--12--11--9-(4 times)-------------------------|

------------------------------------------------------------------


(VERSION TWO)

Verse:
e|---------------------------------------------------------------|
B|---------------------------------------------------------------|
G|---------2---5-4-----------------------------------------------|
D|-222-5-2-2-2-5-4-----------------------------------------------|
A|-222-5-2-0-2-3-2-----------------------------------------------|
E|-000-3-0---0---------------------------------------------------|

Chorus:
e|---------------------------------------------------------------|
B|---------------------------------------------------------------|
G|-66666666666666------------------------------------------------|
D|-66666666666666-777-999----------------------------------------|
A|-44444444444444-777-999----------------------------------------|
E|----------------555-777-(4 times)------------------------------|

Chorus (cont.):
e|---------------------------------------------------------------|
B|---------------------------------------------------------------|
G|-66666666-9-8--------------------------------------------------|
D|-66666666-9-8--(4 times)---------------------------------------|
A|-44444444-7-6--------------------------------------------------|
E|---------------------------------------------------------------|


| / slide up
| \ slide down
| h hammer-on
| p pull-off
| ~ vibrato
| + harmonic
| x Mute note

#----------------------------------PLEASE NOTE---------------------------------#
#This file is the author's own work and represents their interpretation of the #
#song. You may only use this file for private study, scholarship, or research. #
#----------------------------------------------------------------
Comments