Action Action - Broken Chords & Tabs

 

Broken Chords & Tabs

Action Action Chords & Tabs

Version: 1 Type: Bass Tab

Broken Bass Tab

Intro, verse, pre-verse

G------------------------------------------
D------------------------------------------
A--------------------11-111-1--66-666-6----
E-77-777-7--22-222-2-----------------------

Play right through till the chorus:

(half speed)

G-----------------------------------------
D-----------------------------------------
A-----------------2-2-2-2-2-2-2-2---------
E-2-2-2-2-4-4-4-4-------------------------

Back to this
[ Tab from: http://www.guitartabs.cc/tabs/a/action_action/broken_btab.html ]
G------------------------------------------|
D------------------------------------------|
A--------------------11-111-1--66-666-6----|
E-77-777-7--22-222-2-----------------------|

CHORUS

Verse

Bridge ("Everyday, everyway..."

G-----------------------------------------------------------------|
D------------------------------------5-8-5------------------------|
A---------------4-4-------8888888--6-------6----------------------|
E-4444-4444-4-4-----2-------------------------6-6-6-6-6---6--4----|

Verse

CHORUS

OUTRO

G-----------------------------------------
D-----------------------------------------
A-----------------2-1-4-------------------
E-2-2-2-2-4-4-4-4-------------------------