Acoustic Alchemy - Last Summer Song Chords & Tabs

 

Last Summer Song Chords & Tabs

Acoustic Alchemy Chords & Tabs

Version: 1 Type: Tab 0 ratings
1 star 2 stars 3 stars 4 stars 5 stars
comments

Last Summer Song Tab

                      Acoustic alchemy Last summer song

first part

----------------------||------------------------1-1-1------------------
--6--5---3-3------3---||-9-8-6-4----1------1----1-1-1------------------
--5--4---2-2----2---2-||-8-7-5-3----2----2-----------------------------
----------------------||------------------------3-3-3------------------
--5--4---2----2-------||-8-7-5-3----3--3-------------------------------
----------------------||-----------------------------------------------


------------------------0--------0---0-------0-|------0---1-1-1-1--||--
-1-------1--3--------3--1-----1------1-----1---|--3---1---1-1-1-1--||--
-2-----2----3------3---------------------------|--3----------------||--
-------------------------------------0---0-----|----------0-0-0-0--||--
------------1---1-------0--0-------------------|--1---0------------||--
-1---1-----------------------------------------|-------------------||--


[ Tab from: http://www.guitartabs.cc/tabs/a/acoustic_alchemy/last_summer_song_tab.html ]
--4------4-4-4------4||------------------------------------------------
--5----5---5-5---5---||------------------------------------------------
---------------------||------------------------------------------------
---------------------||------------------------------------------------
--4--4---------------||------------------------------------------------
-----------2---2-----||------------------------------------------------


solo part 

---------------------------------10---8------8-10----------------------
---10-10--8-10-----11--10-8---------------10-------8/10--8-----8-------
---------------10------------10-----------------------------10-----10--
-----------------------------------------------------------------------
-----------------------------------------------------------------------
-----------------------------------------------------------------------

---------------|---------------------------------------||--------------
---------------|---------8-8h10-8-----8----------------||--------------
-7-7-5h7p5-----|---7-10-----------10-----10--7-7-5h7p5-||--------------
---------------|---------------------------------------||--------------
---------------|---------------------------------------||--------------
---------------|---------------------------------------||--------------



   transcript by rital from france the king of picking
Comments