Acid - Broken Life Chords & Tabs

 

Broken Life Chords & Tabs

Acid Chords & Tabs

Version: 1 Type: Tab 2 ratings
1 star 2 stars 3 stars 4 stars 5 stars
comments

Broken Life Tab

Broken Life
By Acid



Intro
Play only top 3 strings
-----0-----0----2---2---
---0-----0----0---0-----
-0-----0----0---0-------
------------------------
------------------------
------------------------

-----3---3---2--2-|-0--|
---0---0---0---0--|-0--|
-0---0---0---0----|-0--|
------------------|----|
------------------|----|
------------------|----|

Use pick to play bottom 3 strings 
----------------------------|---------------------------|----------------------------
----------------------------|---------------------------|----------------------------
----------------------------|---------------------------|----------------------------
-0-0-0--0-0-0--0-0-0--0-0-0-|-0-0-0--0-0-0--0-0-0--0-0-0|-0-0-0--0-0-0--0-0-0--0-0-0-
-0-0-0--0-0-0--0-0-0--0-0-0-|-2-2-2--2-2-2--2-2-2--2-2-2|-3-3-3--3-3-3--3-3-3--3-3-3-
-0-0-0--0-0-0--0-0-0--0-0-0-|-0-0-0--0-0-0--0-0-0--0-0-0|-0-0-0--0-0-0--0-0-0--0-0-0-

------------------------------------------------------------------------------------
------------------------------------------------------------------------------------
------------------------------------------------------------------------------------
0-0-0--0-0-0--0-0-0--0-0-0-------0-0-0--0-0-0--0-0-0--0-0-0-------0-0-0--0-0-0-------
0-0-0--0-0-0--0-0-0--0-0-0-------0-0-0--0-0-0--0-0-0--0-0-0-------2-2-2--2-2-2---------
2-2-2--2-2-2--2-2-2--2-2-2-------0-0-0--0-0-0--0-0-0--0-0-0-------0-0-0--0-0-0---------


--------------------------------------------------------------------------------------
-----------------------------------------------------------------------------------------
-------------------------------------------------------------------------------------------
0-0-0--0-0--0------0-0-0--0-0-0--0-0-0--0-0-0----0-0-0--0-0-0--0-0-0--0-0-0--------
2-2-2--2-2--2------3-3-3--3-3-3--3-3-3--3-3-3----0-0-0--0-0-0--0-0-0--0-0-0--------
0-0-0--0-0--0------0-0-0--0-0-0--0-0-0--0-0-0----2-2-2--2-2-2--2-2-2--2-2-2--------


--------------------------------------------------------------------------------------------------
-------------------------------------------------------------------------------------------------
---------------------------------------------------------------------------------------------------
--0-0-0--0-0-0--0-0-0--0-0-0---0-0-0--0-0-0--0-0-0--0---0--0----0---0--0---------------
--2-2-2--2-2-2--2-2-2--2-2-2---4-4-4--6-6-6--8-8-8--10-10-10--12-12-12----REST----
--0-0-0--0-0-0--0-0-0--0-0-0---0-0-0--0-0-0--0-0-0---0--0---0---0---0--0--------


---------------------------------------------------------------------------------------------------
---------------------------------------------------------------------------------------------------
---------------------------------------------------------------------------------------------------
0-0-0--0-0--0---0-0-0--0-0-0--------0-0-0--0-0-0---0-0-0--0-0-0-------0-0-0--0-0--
7-7-7--7-7--7---5-5-5--5-5-5--------3-3-3--3-3-3---0-0-0--0-0-0-------7-7-7--7-7--
0-0-0--0-0--0---0-0-0--0-0-0--------0-0-0--0-0-0---2-2-2--2-2-2-------0-0-0--0-0—


[ Tab from: http://www.guitartabs.cc/tabs/a/acid/broken_life_tab.html ]
---------------------------------------------------x------------------------------
---------------------------------------------------x------------------------------
---------------------------------------------------x------------------------------
0-0-0--0-0-0------0-0-0--0-0-0---0-0-0--0-0-0------x---REST------------
5-5-5--5-5-5------3-3-3--3-3-3---0-0-0--0-0-0------x----------------
0-0-0--0-0-0------0-0-0--0-0-0---2-2-2--2-2-2------0------------------


-------------------------------------------------------------------------------------
-------------------------------------------------------------------------------------
-------------------------------------------------------------------------------------
0-0-0--0-0-0--0-0-0--0-0-0-------0-0-0--0-0-0--0-0-0--0-0-0------------
0-0-0--0-0-0--0-0-0--0-0-0-------2-2-2--2-2-2--2-2-2--2-2-2------------
0-0-0--0-0-0--0-0-0--0-0-0-------0-0-0--0-0-0--0-0-0--0-0-0------------


--------------------------------------------------------------------------------
-----------------------------------------------------------------------------
-------------------------------------------------------------------------------
0-0-0--0-0-0--0-0-0--0-0-0-------0-0-0--0-0-0--0-0-0--0-0-0------0-0-0--0-0-0--0-0-0--0-00
3-3-3--3-3-3--3-3-3--3-3-3-------0-0-0--0-0-0--0-0-0--0-0-0------2-2-2--2-2-2--2-2-2--2-22
0-0-0--0-0-0--0-0-0--0-0-0-------2-2-2--2-2-2--2-2-2--2-2-2------0-0-0--0-0-0--0-0-0--0-00


-------------------------------------------------------------------------------
-------------------------------------------------------------------------------
-------------------------------------------------------------------------------
0-0-0--0-0-0--0-0-0--0-0-0--0--0---0-------0--0---0--------------
4-4-4--6-6-6--8-8-8--8-8-8--10-10-10-----12-12-12---REST-------
0-0-0--0-0-0--0-0-0--0-0-0--0---0--0-------0--0---0---------------

---------------------------------------------------------------------------------------
----------------------------------------------------------------------------------------
---------------------------------------------------------------------------------------
0-0-0--0-0-0---0-0-0--0-0-0------0-0-0--0-0-0-----0-0-0---0-0-0-----
7-7-7--7-7-7---5-5-5--5-5-5------3-3-3--3-3-3-----2-2-2---2-2-2-----
0-0-0--0-0-0---0-0-0--0-0-0------0-0-0--0-0-0-----0-0-0---0-0-0------


-------------------------------------------------------------------------
-------------------------------------------------------------------------
-------------------------------------------------------------------------
0----0-0-0--0-0-0--0-0-0--0-0-0------------------------
2----0-0-0--0-0-0--0-0-0--0-0-0-----222-444-666-888-101010-12 Let Ring-
0----2-2-2--2-2-2--2-2-2--2-2-2------------------------


--------------------------------------- 32--3456-----—------------------------------------
-----------------------------------23-
------------------------------32---------------------------------------------------
--------------------------23------------------------------
----------------------32----------------------------------
0-0-0--0-0-0--23------------------------------------------------


7-7-7- -7-7-7-5-5-5--5-5-5----3-3-3-3-3-3----2-2-2--2-2-2---3-2--0 LET RING--------------
--------------------------------------------------------------------------------
---------------------------------------------------------------------------------
---------------------------------------------------------------------------------
----------------------------------------------------------------------------------
------------------------------------------------------------------------------------
Comments