Acheron - Fuck The Ways Of Christ Chords & Tabs

 

Fuck The Ways Of Christ Chords & Tabs

Acheron Chords & Tabs

Version: 1 Type: Tab 0 ratings
1 star 2 stars 3 stars 4 stars 5 stars
comments

Fuck The Ways Of Christ Tab

   
FUCK THE WAYS OF CHRIST by ACHERON
tabbed by dakota 
email: carpathia9@hotmail.com
tuning: C#

FILL 1
1------------|
2------------|
3------------|
4-2--2--2--2-|
5-2--2--2--2-|
6-0--0--0--0-|

RIFF 1
1----------------------------------|
2----------------------------------|
3----------------------------------|
4----------------------------------|
5-----------------7777777788888888-|
6-5555555555555555-----------------|

1--------------------------|
2--------------------------|
3--------------------------|
4--------------------------|
5-3333333322222222---------|
6-----------------33333333-|

1---------------------------------|
2---------------------------------|
3---------------------------------|
4---------------------------------|
5----------------7777777788888888-|
6-555555555555555-----------------|


1-------------------------|
2-------------------------|
3-------------------------|
4-555555544444444---------|
5----------------55555555-|
6-------------------------|


RIFF 2

1-----------------|
2-----------------|
3-----------------|
4-5-----4-----3---|
5-5-----4-----3---|
6-3-0-0-2-0-0-1-0-|
    . .   . .   .

FILL 2
[ Tab from: http://www.guitartabs.cc/tabs/a/acheron/fuck_the_ways_of_christ_tab.html ]
1------|
2------|
3------|
4-2--2-|
5-2--2-|
6-0--0-|

RIFF 1 

RIFF 2 

FILL 2

SOLO  - there is a rythym behind the solo that i'm not 
sure how to play. i can't really hear the guitar so 
just go ape shit on the fret board.

RIFF 3

1-------------------------------------------------
2-------------------------------------------------
3-------------------------------------------------
4-2-2---------2-2---------2-2---------5\7-7-7-7\8-
5-2-2---------2-2---------2-2---------5\7-7-7-7\8-
6-0-0-0000000-0-0-0000000-0-0-0000000-3\5-5-5-5\6-
      .......     .......     .......

FILL 3
1---------------------------
2---------------------------
3---------------------------
4-2------2-------2--------2-
5-2------2-------2--------2-
6-0------0-------0--------0-

FILL 1

RIFF 1

RIFF 2

song structure:

FILL 1 
RIFF 1 - 2 times
RIFF 1 - 4 times (verse)
RIFF 2 - 8 times (chorus)
FILL 2
RIFF 1 - 4 times (verse)
RIFF 2 - 8 times (chorus)
FILL 2 
SOLO
RIFF 3 - 8 times
FILL 3 
FILL 1
RIFF 1 - 2 times (w/solo)
RIFF 1 - 4 times
RIFF 2 - 8 times

e-mail me if you have anything different than this. 
i think the chorus is something different but oh 
well. this was my first attempt at tabbing anything
by the way. oh well stay fucking brutal.
Comments