Ace Troubleshooter - Dont Trust That Girl Chords & Tabs

 

Dont Trust That Girl Chords & Tabs

Ace Troubleshooter Chords & Tabs

Version: 1 Type: Tab 0 ratings
1 star 2 stars 3 stars 4 stars 5 stars
comments

Dont Trust That Girl Tab

e[-------------------------------------------------------------]
b[-5-5-5-5-5-5-5-5-5-5-5-5-5-5-5-5-----------------------------]
g[-5-5-5-5-5-5-5-5-5-5-5-5-5-5-5-5---4-4-4-4-4-4-4-4-4-4-4-4-4-]
d[-5-5-5-5-5-5-5-5-5-5-5-5-5-5-5-5---5-5-5-5-5-5-5-5-5-5-5-5-5-]
a[-3-3-3-3-3-3-3-3-3-3-3-3-3-3-3-3---5-5-5-5-5-5-5-5-5-5-5-5-5-]
e[-----------------------------------3-3-3-3-3-3-3-3-3-3-3-3-3-]
[ Tab from: http://www.guitartabs.cc/tabs/a/ace_troubleshooter/dont_trust_that_girl_tab.html ]
e[-------------------------------------------------------------]
b[-------------------------------------------------------------]
g[-2-2-2-2-2-2-2-2-2-2-2-2-2-2-2-2---5-5-5-5-5-5-5-5-5-5-5-5-5-]
d[-3-3-3-3-3-3-3-3-3-3-3-3-3-3-3-3---6-6-6-6-6-6-6-6-6-6-6-6-6-]
a[-3-3-3-3-3-3-3-3-3-3-3-3-3-3-3-3---6-6-6-6-6-6-6-6-6-6-6-6-6-]
e[-1-1-1-1-1-1-1-1-1-1-1-1-1-1-1-1---4-4-4-4-4-4-4-4-4-4-4-4-4-]

e[--------------------------------------------------------------]
b[--------------------------------------------------------------]
g[-4-4-4-4-4-4-4-4-4-4-4-4-4-4-4-4------------------------------]
d[-5-5-5-5-5-5-5-5-5-5-5-5-5-5-5-5------------------------------]
a[-5-5-5-5-5-5-5-5-5-5-5-5-5-5-5-5------------------------------]
e[-3-3-3-3-3-3-3-3-3-3-3-3-3-3-3-3------------------------------]
Comments