Ace Frehley - Foxy Lady Chords & Tabs

 

Foxy Lady Chords & Tabs

Ace Frehley Chords & Tabs

Version: 1 Type: Bass Tab

Foxy Lady Bass Tab

THE INTRO/MAIN RIFF IS AS FOLLOWS:

|-0-0--0-0--0-0--3-----|
|----7----7----7--0-1-2|
|----------------------|
|----------------------|


THE CHORUS:
[ Tab from: http://www.guitartabs.cc/tabs/a/ace_frehley/foxy_lady_btab.html ]
|-0-0-0-0------------|
|---------5-5-5-0-0-0|
|--------------------|
|--------------------|

THAT IS REPEATED AND THEN IT JUMPS BACK INTO THE MAIN RIFF. THE SOLO HAS THE SAME PART AS THE VERSE.

-CHEERS