Acceptance - Take Cover Acoustic Chords & Tabs

 

Take Cover Acoustic Chords & Tabs

Acceptance Chords & Tabs

Version: 2 Type: Tab 0 ratings
1 star 2 stars 3 stars 4 stars 5 stars
comments

Take Cover Acoustic Tab

Acceptance - Take Cover (acoustic)
Tabbed by James Vandegrift
INTRO:

Guitar 1 (acoustic) 
[ Tab from: http://www.guitartabs.cc/tabs/a/acceptance/take_cover_acoustic_tab_ver_2.html ]
eb||:|------------------------|------------------------|:|
Bb||:|--------5----------5----|--------5----------5----|:|
F#||:|----5----------5--------|----5----------5--------|:|  (x2)
C#||:|--3---3------3---3------|------------------------|:|
Ab||:|------------------------|--0---0------0---0------|:|
Db||:|------------------------|------------------------|:|
	________________________________________________________________
	Guitar 1
	
	eb||:|------------------------|------------------------|:|
	Bb||:|--------5----------5----|--------5----------5----|:|
	F#||:|----5----------5--------|----5----------5--------|:|
	C#||:|--3---3------3---3------|------------------------|:|\
	Ab||:|------------------------|--0---0------0---0------|:| \
	Db||:|------------------------|------------------------|:|  \
								     \
	Guitar 2						    (x3)
								     /
	eb||:|------------------------|------------------------|:|  /
	Bb||:|--------8~--------------|--------8~--------------|:| /
	F#||:|----9---9~--------------|----9---9~--------------|:|/
	C#||:|-(3)--------------------|------------------------|:|
	Ab||:|------------------------|-(0)--------------------|:|
	Db||:|------------------------|------------------------|:|
Comments