Acceptance - So Contagious Chords & Tabs

 

So Contagious Chords & Tabs

Acceptance Chords & Tabs

Version: 4 Type: Tab

So Contagious Tab

tabbed by:hunter
song:so contagious

Tuning:not sure

intro gtr 1
e|-----------------------------------------|
B|-----------------------------------------|
G|------------/55555-------888-------------|
D|-56666--333-/66666-------555-------------|
A|-88888--444------------------------------|
E|-----------------------------------------|


gtr 2
e|-----------------------------------------|
B|-----------------------------------------|
G|-----------------------------------------|
D|-----------------------------------------|
A|----56666------88888--333----------------|
E|-----------444---------------------------|

[ Tab from: http://www.guitartabs.cc/tabs/a/acceptance/so_contagious_tab_ver_4.html ]
could this be out of line....
e|-----------------------------------------|
B|-----------------------------------------|
G|-----------------------------------------|
D|-----6-----------------------------------|
A|-----8---[keep strumming]----------------|
E|-----------------------------------------|

e|-------------------------------------------|
B|-------------------------------------------|
G|-------------------------------------------|
D|-------5-------3-----5-----2--------3------|
A|-------5(8x)---3(8x)-5(16x)2(8x)----3(8x)--|
E|-------3-------1-----3-----0--------1------|

e|-----------------------------------------|
B|-----------------------------------------|
G|-------5-------5--------5----------------|
D|-----5---5---5---5----5---5--------------|
A|---7-------7--------7--------------------|
E|-----------------------------------------|


e|-------------------------------------------------|
B|-------------------------------------------------|
G|------7--------7-------7-------7-----------------|
D|----5---5----5---5---5---5---5---5---------------|
A|--8--------8-------8-------8---------------------|
E|-------------------------------------------------|