Accept - Losers And Winners Chords & Tabs

 

Losers And Winners Chords & Tabs

Accept Chords & Tabs

Version: 1 Type: Tab 0 ratings
1 star 2 stars 3 stars 4 stars 5 stars
comments

Losers And Winners Tab

   
                      Accept: Losers and Winners 

 TAB by Ben Rice
 E-mail: Othenelo34@hotmail.com 
(feel free to give your opinion/correction)
    
 Riff: A                                                 

-|----------------------------|-----------------------------|-
-|----------------------------|-----------------------------|-
-|----------------------------|-----------------------------|-
-|---x-x-9--x-x-9--x-x-7--x-9-|---x-x-9--x-x-9--x-x-5--x-7--|-
-|---x-x-7--x-x-7--x-x-5--x-7-|---x-x-7--x-x-7--x-x-3--x-5--|-
-|----------------------------|-----------------------------|-
  

                                                           (x2)
-|----------------------------|-----------------------------|-
-|----------------------------|-----------------------------|-
-|----------------------------|-----------------------------|-
-|---x-x-9--x-x-9--x-x-7--x-9-|---x-x-9--x-x-9--12-11--7-9--|-
-|---x-x-7--x-x-7--x-x-5--x-7-|---x-x-7--x-x-7--10-9---5-7--|-
-|----------------------------|-----------------------------|-
 

Riff: B
-|----------------------------|-----------------------------|-
-|----------------------------|-----------------------------|-
-|----------------------------|-----------------------------|-
-|-x-x-9--x-x-9--x-x-9--x-x-9-|--x-x-9--x-x-9--x-x-9--x-x-9-|-
-|-x-x-7--x-x-7--x-x-7--x-x-9-|--x-x-7--x-x-7--x-x-7--x-x-9-|-
-|----------------------------|-----------------------------|-

-|----------------------------|-----------------------------|-
-|----------------------------|-----------------------------|-
-|----------------------------|-----------------------------|-
-|-x-x-9--x-x-9----7-9--------|-x-x-9--x-x-9--x-x-9--x-x-9--|-
-|-x-x-7--x-x-7----5-7--------|-x-x-7--x-x-9--x-x-7--x-x-7--|-
-|----------------------------|-----------------------------|-

-|----------------------------|-----------------------------|-
-|----------------------------|-----------------------------|-
-|----------------------------|-----------------------------|-
-|-x-x-9--x-x-9--x-x-9--x-x-9-|--x-x-9--x-x-9---55--77--99--|-
-|-x-x-7--x-x-7--x-x-7--x-x-9-|--x-x-7--x-x-7---33--55--77--|-
-|----------------------------|-----------------------------|-
Down then up stroke when hitting the chord 2x-> v^  v^  v^       


-|----------------------------|-----------------------------|-
-|----------------------------|-----------------------------|-
-|----------------------------|-----------------------------|-
-|-x-x-9--x-x-9--x-x-9--x-x-9-|--x-x-9--x-x-9--x-x-9--x-x-9-|-
-|-x-x-7--x-x-7--x-x-7--x-x-9-|--x-x-7--x-x-7--x-x-7--x-x-9-|-
-|----------------------------|-----------------------------|-

-|----------------------------|-----------------------------|-
-|----------------------------|-----------------------------|-
-|----------------------------|-----------------------------|-
-|-x-x-9--x-x-9----12-11--79--|-x-x-9--x-x-9--x-x-9--x-x-9--|-
-|-x-x-7--x-x-7----10--9--57--|-x-x-7--x-x-9--x-x-7--x-x-7--|-
-|----------------------------|-----------------------------|-
[ Tab from: http://www.guitartabs.cc/tabs/a/accept/losers_and_winners_tab.html ]
-|----------------------------|-----------------------------|-
-|----------------------------|-----------------------------|-
-|----------------------------|-----------------------------|-
-|-x-x-9--x-x-9--x-x-9--x-x-9-|--x-x-9--x-x-9--7--5--0------|-
-|-x-x-7--x-x-7--x-x-7--x-x-9-|--x-x-7--x-x-7--5--3--2------|-
-|----------------------------|-----------------------------|-


Riff: C                    x3
-|----------------------------|-----------------------------|-
-|----------------------------|-----------------------------|-
-|----------------------------|------4----------------------|-
-|--4---------(2)---------4---|------2---2------2-----------|-
-|--2---------(0)---------2---|----------0-------5-3-2-3----|-
-|----------------------------|-------------------------3-0-|-
               ^ pause diff. each time            ^ or something like this     
                                                   (played only first verse)      


Riff: D  (chorus)
-|----------------------------|-----------------------------|-
-|----------------------------|-----------------------------|-
-|----------------------5-----|-----------------------------|-
-|----------------------5-----|------------------7----------|-
-|-------2-2-2-2-2-2-2--3-----|---5-5-5-5-5-5-5--5---5h7p5--|-
-|-------0-0-0-0-0-0-0--------|---3-3-3-3-3-3-3-------------|-
                    
                                                         x2
-|----------------------------|-----------------------------|-
-|----------------------------|-----------------------------|-
-|----------------------5-----|-----------------------------|-
-|----------------------5-----|-------5-4-5-4-2-------------|-
-|-------2-2-2-2-2-2-2--3-----|----------------2-5----------|-
-|-------0-0-0-0-0-0-0--------|----3------------------------|-
               
                                                
-|----------------------------|-
-|----------------------------|-
-|----------------------------|-
-|----------------------------|-   Play this the second time through
-|--------------3-3--2--------|-   instead of the fill
-|-----3-3--0-----------------|-



          ~solo~
 Rythm is Riff A (once not twice), and Riff B.

 Riff D (chorus)

 End second time with:
                                          || then dive
-|----------------------------|-----------------------------|-
-|----------------------------|-----------------------------|-
-|----------------------------|-----------5-5--4--4h5p4p1h4-|-
-|----------------------------|----5-5--4-------------------|- 
-|-------------3-3--2--3-3--2-|-----------------------------|-  
-|----3-3--0------------------|-----------------------------|-

 Little fill i havn't bothered with yet gos in here, then the
 second solo starts. and i couldn't figure the rythm but i 
 supose its about the same as the first.

 Riff D (chorus)
   second time through (and 4th, then 6th, respectively)

second:
-|----------------------------|-
-|----------------------------|-
-|----------------------------|-
-|--2-3p2h3-----------------2-|-   
-|--------5p2h3p2------2h3----|-   
-|---------------3p0--3-------|-

4th:
-|----------------------------|-
-|----------------------------|-
-|----------------------------|-
-|--4---4-4-4-4-4-4-4---4-4---|-
-|--2---2-2-2-2-2-2-2---2-2---|-
-|----------------------------|-

6th:
-|------------------------------------|-
-|------------------------------------|-
-|------------------------------------|-
-|--2-3p2h3-----------------2---------|-   
-|--------5p2h3p2------2h3----2-------|-   
-|---------------3p0--3---------3-0---|-

Or at least somethiong like that!
have fun this is a great song....
Comments