Acab - Where Have All The Bootboys Gone Chords & Tabs

 

Where Have All The Bootboys Gone Chords & Tabs

Acab Chords & Tabs

Version: 2 Type: Tab 0 ratings
1 star 2 stars 3 stars 4 stars 5 stars
comments

Where Have All The Bootboys Gone Tab

ACAB - Where Have All The Bootboys Gone  *** idop BTHO ***

Tabbed by - shaheed
email - the3samurai@yahoo.com

e-------------------------------|
B-------------------------------|
G-5-5---9-9---------------------|
D-5-5---9-9---7-7---3-3---------|
A-3-3---7-7---7-7---3-3---------|
E-------------5-5---1-1---------|

  I still remember those glory day...
e-----------------------------------|
B-----------------------------------|
G---5-9-------5-9-----------5-9-----|
D-5-5-9-7-3-5-5-9-7-3-5-3-5-5-9-7---| (main ikut tone lagu)
A-5-3-7-7-3-5-3-7-7-3-5-3-5-3-7-7---|
E-3-----5-1-3-----5-1-3-1-3-----5---|

e--------|---------------------------|
B--------|---------------------------|
G-77-4---|-----5-9-------------------|
D-77-4-7-|-3-5-5-9-------------------| (main ikut tone lagu)
A-55-2-7-|-3-5-3-7-------------------|
E------5-|-1-3-----------------------|
[ Tab from: http://www.guitartabs.cc/tabs/a/acab/where_have_all_the_bootboys_gone_tab_ver_2.html ]
e--------------------------------------------------------|
B--------------------------------------------------------|
G-77-55b-77-554b-77-55-2--0-2-5-2----2-5/10-99-77-55-4---|
D--------------------------------------------------------|
A--------------------------------------------------------|
E--------------------------------------------------------|

Lyric-
I still remember those glory days
Where no one dared to get in our ways
It only seems like yesterday
Seeing boots and braces all the way

We used to live out on the streets
We used to drink and used to steal to eat
We shared the joy and we shared the pain
I' ve never thought you'd call it a day.....

We Were So Proud..
We were so strong
But now where have all the bootboys gone?
The joy we had
The pain we shared
Are always on my mind.....

oi!! oi!!... acab 4 ever!! dier punyer plucking tak siap agi...
ader comment aper2 antar kat the3samurai@yahoo.com...
Comments