Acab - We Are Acab Chords & Tabs

 

We Are Acab Chords & Tabs

Acab Chords & Tabs

Version: 1 Type: Tab 0 ratings
1 star 2 stars 3 stars 4 stars 5 stars
comments

We Are Acab Tab

Song Title:We Are Acab
Band:ACAB
Transcriber:Mohd Rizwan Bin Rossidi (what_666@hotmail.com)

Intro (Repeat 4 times)

e||----------------------------------------------------------------------------------|
B||----------------------------------------------------------------------------------|
G||----------------------------------------------------------------------------------|
D||------3-----2-----5-----3-----2-----3-----2-----------------------3-----2-----5---|
A||--0-0---0-0---0-0---0-0---0-0-------------------3-----5-----3---------------------|
E||--------------------------------1-1---1-1---1-1---1-1---1-1---3-3---3-3---3-3---3-|

e||----------------------------------------------------------------------------------|
B||----------------------------------------------------------------------------------|
G||---------------7-----6-----5-----6------------------------------------------------|
D||---------------7-----6-----5-----6------------------------------------------------|
A||---3-----2------------------------------------------------------------------------|
E||-3---3-3---5-5---5-5---5-5---5-5--------------------------------------------------|

Verse (Repeat 1 time)
[ Tab from: http://www.guitartabs.cc/tabs/a/acab/we_are_acab_tab.html ]
e||----------------------------------------------------------------------------------|
B||----------------------------------------------------------------------------------|
G||----------------------------------------------------------------------------------|
D||--7-7-7-7-7-7-7-7-7-7-7-7-7-7-7-7--3-3-3-3-3-3-3-3-3-3-3-3-3-3-3-3--5-5-5-5-5-5-5-|
A||--7-7-7-7-7-7-7-7-7-7-7-7-7-7-7-7--3-3-3-3-3-3-3-3-3-3-3-3-3-3-3-3--5-5-5-5-5-5-5-|
E||--5-5-5-5-5-5-5-5-5-5-5-5-5-5-5-5--1-1-1-1-1-1-1-1-1-1-1-1-1-1-1-1--3-3-3-3-3-3-3-|

e||----------------------------------------------------------------------------------|
B||----------------------------------------------------------------------------------|
G||----------------------------------------------------------------------------------|
D||-5-5-5-5-5-5-5-5-5--7-7-7-7-7-7-7-7-7-7-7-7-7-7-7-7-------------------------------|
A||-5-5-5-5-5-5-5-5-5--7-7-7-7-7-7-7-7-7-7-7-7-7-7-7-7-------------------------------|
E||-3-3-3-3-3-3-3-3-3--5-5-5-5-5-5-5-5-5-5-5-5-5-5-5-5-------------------------------|

Pre-Chorus

e||----------------------------------------------------------------------------------|
B||----------------------------------------------------------------------------------|
G||----------------------------------------------------------------------------------|
D||--3---3---3~~------3---3-2-2-2----9-8---------------------------------------------|
A||--3---3---3~~------3---3-2-2-2----7-6---------------------------------------------|
E||--1---1---1~~------1---1-0-0-0----------------------------------------------------|

Chorus is the same as the verse...then after chorus, play intro 2 times...
go back to verse,then pre chorus, then chorus...

 The solo...i'm working on it now..so i'll update it as soon as i've finished them!
Comments