Acab - Bersama Semula Chords & Tabs

 

Bersama Semula Chords & Tabs

Acab Chords & Tabs

Version: 2 Type: Tab 0 ratings
1 star 2 stars 3 stars 4 stars 5 stars
comments

Bersama Semula Tab

                         ACAB-Bersama Semular


This is my first time i,m making a Tab so dun get piss if u don't understand it.
Stardard Tuning EADGBe
Tab by warlock666

Intro-play with Dist. best choice use Metal-Zone MT-2(Boss Pedel)
Play string 4 first.

[------------------------------------------------------|
[------------------------------------------------------|
[------------------------------------------------------|
[----------------7-7-7-7-----9-9-9-9-------------------|
[------------------7-7-7-7-----7-7-7-7-----------------|
[------------------------------------------------------|

[------------------------------------------------------|
[------------------------------------------------------|
[------------------------------------------------------|
[---------------------------------7--9--7--------------|
[------------11-11-11-11-----9-9------------7-7-7-7----|
[---------------9-9-9-9-------7-7-------------5-5-5-5--|
[------------------------------------------------------|

[------------------------------------------------------|
[------------------------------------------------------|
[------------------------------------------------------|
[----------6-6-6-6-----4-4-4-4------6-----7-----9------|
[-----------4-4-4-4-----2-2-2-2--------7---------------|
[------------------------------------------------------|

Verse1-play with palm-mute.
i'm not sure how many time u must strum but u just sing and play to get
the correct struming. But it is some where around 7-8 times.

[-------------------------------------------------------|
[-------------------------------------------------------|
[-------------------------------------------------------|
[-------------------------------------------------------|
[-----7-7-7-7-7-7-7-7--6-6-6-6-6-6-6-6--4-4-4-4-4-4-4-4-|
[---5-5-5-5-5-5-5-5--4-4-4-4-4-4-4-4--2-2-2-2-2-2-2-2---|
[ Tab from: http://www.guitartabs.cc/tabs/a/acab/bersama_semula_tab_ver_2.html ]
[------------------------------------------------------|
[------------------------------------------------------|
[------------------------------------------------------|
[---4-4-4-4-4-4-----7-7-7-7-7-7-----6-6-6-6-6-6--------|
[--2-2-2-2-2-2--4--5-5-5-5-5-5--7--4-4-4-4-4-4---------|
[------------------------------------------------------|

[------------------------------------------------------|
[------------------------------------------------------|
[------------------------------------------------------|
[---4-4-4-4-4-4----------------------------------------|
[--2-2-2-2-2-2--4---2----------------------------------|
[------------------------------------------------------|

play without palm-mute

[-------------------------------------------------------|
[-------------------------------------------------------|
[-------------------------------------------------------|
[-------------------------------------------------------|
[-----7-7-7-7-7-7-7-7--6-6-6-6-6-6-6-6--4-4-4-4-4-4-4-4-|
[---5-5-5-5-5-5-5-5--4-4-4-4-4-4-4-4--2-2-2-2-2-2-2-2---|

[------------------------------------------------------|
[------------------------------------------------------|
[------------------------------------------------------|
[---4-4-4-4-4-4-----7-7-7-7-7-7-----6-6-6-6-6-6--------|
[--2-2-2-2-2-2--4--5-5-5-5-5-5--7--4-4-4-4-4-4---------|
[------------------------------------------------------|

[------------------------------------------------------|
[------------------------------------------------------|
[------------------------------------------------------|
[---4-4-4-4-4-4----------------------------------------|
[--2-2-2-2-2-2--4---2----------------------------------|
[------------------------------------------------------|

Verse2 is the same as Verse1 so just play the same way as verse1(palm-mute)

The solo i,ve not COMPLETED it, so sorry... but i can give u the first few notes.... U 
listen 2 the song to get the timing rite...

[----------------------------------------------------------------------|
[---------------5------------7--5------------5--5------------------5---|
[--------4---6--------4---6------------4---6------7-7-7--6-6---6-7---6-|
[-----7------------7----------------7------------------------7---------|
[----------------------------------------------------------------------|
[----------------------------------------------------------------------|
Comments