Acab - Bersama Semula Chords & Tabs

 

Bersama Semula Chords & Tabs

Acab Chords & Tabs

Version: 1 Type: Tab 0 ratings
1 star 2 stars 3 stars 4 stars 5 stars
comments

Bersama Semula Tab

by undead(undead_x@hotmail.com)

Standard tuning(light distortion)
[ Tab from: http://www.guitartabs.cc/tabs/a/acab/bersama_semula_tab.html ]
e|-5---5---5---5---7---7---7---7---9---9---9---9---7---7---7-9-7-5---------|
b|---5---5---5---5---5---5---5---5---7---7---7---7---5---5-----------------|
g|-------------------------------------------------------------------------|
d|-------------------------------------------------------------------------|
a|-------------------------------------------------------------------------|
e|-------------------------------------------------------------------------|

e|-5---5---5---5---4---4---4---4---2---2---2---2---4---4---5---7-----------|
b|---5---5---5---5---5---5---5---5---3---3---3---3---5---5---5---5---------|
g|-------------------------------------------------------------------------|
d|-------------------------------------------------------------------------|
a|-------------------------------------------------------------------------|
e|-------------------------------------------------------------------------|

very easy
Comments