Ac Dc - You Shook Me All Night Long Chords & Tabs

 

You Shook Me All Night Long Chords & Tabs

Ac Dc Chords & Tabs

Version: 4 Type: Tab 5 ratings
1 star 2 stars 3 stars 4 stars 5 stars
comments

You Shook Me All Night Long Tab

   
-------------------------------------------------------------------------------
			   You Shook Me All Night Long
                                          By
                                        AC/DC
-------------------------------------------------------------------------------
Tabbed by:ZeppelinHaze

Intro                               <     First Ending     > <  Second Ending   >
e|------3------5----3----3-2-0------|-2---------------------|--2----------------|
B|-----3------3------3---------0----|-3---------------------|--3----------------|
G|----0------0--------0-------------|-2---------------------|--2----------------|
D|---0------0-----------------------|-0---------------2-----|--0----------------|
A|--2-------------------------------|------0-3b-0-3h4---3p0-|-------------------|
E|-3--------------------------------|-----------------------|-------------------|

Verse
   d           ^ ^ d  d  d ^                ^ ^ d  d  d     d m d^d^d^d^  
e|-3---------------3-----3-2-(2)------------3-3-2--3--2---|-2-------------------|
B|-0-----------1-1-0--1--0-3—(3)------------0-0-3--0--3---|-3-------------------|
G|-0--QR-QR-ER-0-0-0--0--0-2—(2)--QR-QR ER--0-0-2--0--2-3x|-2-----------------2x|
D|-0-----------2-2-0--2--0-0—(0)------------0-0-0--0--0---|-0-------------------|
A|-2-----------3-3-2--3--2------------------2-2----2------|---------------------|
E|-3---------------3-----3------------------3-3----3------|---------------------|

First Chorus
                                                        Verse Again Same Pattern
e|---3--------------------2--------------------|-----------------------------------|
B|---0--------------------3--------------------|-----------------------------------|
G|---0---------0-----0----2----------0-----0---|-----------------------------------|
D|---0-------2-----0---0--0--------2-----0---2x|-----------------------------------|
A|---2-0-2-3-----2-----------0-2-3-----2-------|-----------------------------------|
E|-3-3-----------------------------------------|-----------------------------------|

Second Chorus                                            Fourth Time Repeated
e|---3--------------------2-------------------|---3--------------------------------|
B|---0--------------------3-------------------|---0--------------------------------|
G|---0---------0-----0----2---------0-----0-3x|---0---------0-----0----------------|
D|---0-------2-----0---0--0-------2-----0-----|---0-------2-----0------------------|
A|---2-0-2-3-----2----------0-2-3-----2-------|---2-0-2-3-----2--------------------|
E|-3-3----------------------------------------|-3-3--------------------------------|

   d m d^d^d^ 
e|-2----------|---------------|----------------|--------------|
B|-3----------|---------------|----------------|--------------|
G|-2----------|-------%-------|-------%--------|-------%------|
D|-0----------|---------------|----------------|--------------|
A|------------|---------------|----------------|--------------|
E|------------|---------------|----------------|--------------|
[ Tab from: http://www.guitartabs.cc/tabs/a/ac_dc/you_shook_me_all_night_long_tab_ver_4.html ]
Solo     Rhythm for Solo is the verse
e|----3-----------------------------------------------------------------------10------|
B|-----3-6------------------------------------------------6-6----8-8---8-10hb----PB10-|
G|-5b------PB5---3------------------------3b--------3b—s7-----s9-----9----------------|
D|-----------------5----5-3------------------5--3-5-----------------------------------|
A|-------------------5------5-3--------1----------------------------------------------|
E|---------------------------------------3--------------------------------------------|

e|--------------------------------------------------------------------------------|
B|-8---8—11fb-10fb-8---8—18b-18b-PB18~~-15---------------------18-----18----------|
G|---9---------------9---------------------17br15----17-15-17b----17b----17br15---|
D|------------------------------------------------17------------------------------|
A|--------------------------------------------------------------------------------|
E|--------------------------------------------------------------------------------|

e|-------------------18fb-18-17br15--17-15-------15-15----------------15----15-17br15--|
B|-----17----17-15------------------------18-15b------------------s17----17------------|
G|-17--17----17-15-------------------------------------17br15—17b----------------------|
D|--------17---------------------------------------------------------------------------|
A|-------------------------------------------------------------------------------------|
E|-------------------------------------------------------------------------------------|

Third Chorus                                     Fourth Time Repeated  
e|---3--------------------2--------------------|---3------------------------------|
B|---0--------------------3--------------------|---0------------------------------|
G|---0----------0-----0---2----------0-----0---|---0---------0-----0-----Go-------|
D|---0--------2-----0---0-0--------2-----0---3x|---0-------2-----0---0---To-------|
A|---2--0-2-3-----2----------0-2-3-----2-------|---2-0-2-3-----2--------Outro-----|
E|-3-3-----------------------------------------|-3-3------------------------------|

Outro
   d d d                          d d d d  d d d d  Crescendo slowly
e|-2-2-2------------------------|-2-2-2-2--2-2-2-2---------------------------------|
B|-3-3-3------------------------|-3-3-3-3--3-3-3-3---------------------------------|
G|-2-2-2----------0-----0-------|-2-2-2-2--2-2-2-2-----------------------------3x--|
D|-0-0-0--------2-----0---Repeat|-0-0-0-0--0-0-0-0---------------------------------|
A|-------0-2-3------2-----------|--------------------------------------------------|
E|------------------------------|--------------------------------------------------|

That’s it have fun with it hope it makes sense.
 
s  slide
 h  hammer-on
 p  pull-off
 ~  vibrato
 +  harmonic
 x  Mute note
 QR Quarter Rest
 ER Eighth Rest
 ^  Upstroke
 d  Downstroke
 M  Miss when strumming
 %  Repeat First Bar
 PB Prebend
 Hb Hold Bend
 FB Full Bend
 Br Bend Up and then back down
 Crescendo: a gradual increase in the volume of the music.
===============================================================================
Comments