Ac Dc - You Shook Me All Night Long Chords & Tabs

 

You Shook Me All Night Long Chords & Tabs

Ac Dc Chords & Tabs

Version: 15 Type: Tab 0 ratings
1 star 2 stars 3 stars 4 stars 5 stars
comments

You Shook Me All Night Long Tab

   
b=bend       h=hammer on
r=release    /=slide

                         INTRO
   This is truly correct,I own Stiff Upper Lip and Donnington dvds
e-----------------------------------------------------------------2----|
b-8----10--8--8----8-7-----3----------------8---10-8-8---8-7------3----|
g-7----7---7--7--7-----7-0-2---2-2-----2-2--7---7--7-7-7-----7-0--2----|
d------------------------------3-0-3h4-3-0------------------------0----|
a----------------------------------------------------------------------|
e----------------------------------------------------------------------|
                                  
                        VERSE              Ds=D suspended
Very rythmic riff,get good timing.   Fill between Verse and chorus.
e---------------2-2--------2---2-|  |-2--2--2-2-2-3--2--3--2-|
b-3---3-3-3-3-3-3-3----3-3-3-3-3-|  |-3--3--3-3-3-3--3--3--3-|
g-0---0-0-0-0-0-2-2----0-0-2-0-2-|  |-2--2--2-2-2-2--2--2--2-|
d-0-------0---0-0-0----0-0-0-0-0-|  |-0--0--0-0-0-0--0--0--0-|
a-----3-3---3--------------------|  |------------------------|
e-3-------3---3--------3-3---3---|  |------------------------|
  G   C C G C G D D    G G D G D      D  D  D D D Ds D  Ds D
 
                        CHORUS
e-------------------------2----------------------|
b---3---------3-----3-----3----------3-------3---|
g---0-------0-----0---0---2--------0---0---0---0-|
d---0-------------------0-0----------------------|
a-----0-2-3-----2------------0-2-3-------2-------|
e-3-3--------------------------------------------|
    G                     D
[ Tab from: http://www.guitartabs.cc/tabs/a/ac_dc/you_shook_me_all_night_long_tab_ver_15.html ]
              SOLO
e-----3----------------------------------------------------------------
b-------3-6-----------------------------3-------------6-6-----8-8---8--
g-5b7-------5b6r5-3---------------------3-------3---7-----7/9-----9----
d-------------------5---5---5-3-----------5---5------------------------
a---------------------5---------5-3---------5--------------------------
e-----------------------------------6-3--------------------------------
             
-------10-------------------------------------------15----------------
-10b12----(12)r10-8--11b13-10b12-8---8-----19b20-------15-18----------
-----------------------------------9----9--------------------(19)r17--
----------------------------------------------------------------------
----------------------------------------------------------------------
----------------------------------------------------------------------
            
--------------------------------------------------------------18b20---
-------17-15--------18-------18---------------17-15-17-15--15---------
-15----17-15--17b19----17b19----(19)r17-15----17-15-17-15-------------
----17-------------------------------------17-------------------------
----------------------------------------------------------------------
----------------------------------------------------------------------

-17b19--(19)r17-15-17----15-------15------------------------15----15--
----------------------17----18b20----18------------------17----17-----
----------------------------------------(19)r17-15-17b19--------------
----------------------------------------------------------------------
----------------------------------------------------------------------
----------------------------------------------------------------------

-15-(19)r17-15-|
---------------|
---------------|
---------------|
---------------|
---------------|
Comments