Ac Dc - You Aint Got A Hold On Me Chords & Tabs

 

You Aint Got A Hold On Me Chords & Tabs

Ac Dc Chords & Tabs

Version: 1 Type: Tab 0 ratings
1 star 2 stars 3 stars 4 stars 5 stars
comments

You Aint Got A Hold On Me Tab

   
tuning:standard
tabbed by:a crazy teenage rock and roll fan
artist:acdc
song title:you aint got a hold on me
written by:angus young, malcom young, bon scott
album:'74 jailbreak
year: recorded 1974. released 1984

intro solo(chords in back ground:D5 A5 D5 A5)
E|-10========10-8------------------8-10========10-8-------------|
B|----------------10-8========8-10------------------10-8========|
G|--------------------------------------------------------------|
D|--------------------------------------------------------------|
A|--------------------------------------------------------------|
E|--------------------------------------------------------------|
[ Tab from: http://www.guitartabs.cc/tabs/a/ac_dc/you_aint_got_a_hold_on_me_tab.html ]
main riff(verse)
E|---------------------------------------------------|
B|---------------------------------------------------|
G|-5/7-7-5/7-5/7-7-5/7-------------------------------|
D|-5/7-7-5/7-5/7-7-5/7-5/7-7-5/7-5/7-7-5/7-5/7-7-5/7-|       
A|-3/5-5-3/5-3/5-5-3/5-5/7-7-5/7-5/7-7-5/7-5/7-7-5/7-|
E|---------------------3/5-5-3/5-3/5-5-3/5-3/5-5-3/5-|

E|-------------------------------------------------------------|
B|-------------------------------------------------------------|
G|-5/7-7-5/7-5/7-7-5/5---------------------5/7-7-5/7-5/7-7-5/7-|
D|-5/7-7-5/7-5/7-7-5/5-3/5-5-3/5-3/5-5-3/5-5/7-7-5/7-5/7-7-5/7-|
A|-3/5-5-3/5-3/5-5-3/7-3/5-5-3/5-3/5-5-3/5-3/5-5-3/5-3/5-5-3/5-|
E|---------------------1/3-3-1/3-1/3-3-1/3---------------------|

E|---------------------------------------------------|
B|---------------------------------------------------|
G|-----------------------------------------2---5---7-|
D|-5/7-7-5/7-5/7-7-5/7-5/7-7-5/7-5/7-7-5/7-2---5---7-|
A|-5/7-7-5/7-5/7-7-5/7-5/7-7-5/7-5/7-7-5/7-0---3---5-|
E|-3/5-5-3/5-3/5-5-3-5-3/5-5-3/5-3/5-5-3/5-----------|

chorus.
E|-----------------------------------|
B|-----------------------------------|
G|-7---2-------------------2---5---7-|
D|-7---2---2---4---5---7---2---5---7-|
A|-5---0---2---4---5---7---0---3---5-|
E|---------0---2---3---5-------------|

this song is standard so you know the order
Comments