Ac Dc - Walk All Over You Chords & Tabs

 

Walk All Over You Chords & Tabs

Ac Dc Chords & Tabs

Version: 3 Type: Tab 0 ratings
1 star 2 stars 3 stars 4 stars 5 stars
comments

Walk All Over You Tab

Artist:AC/DC
Song: Walk All Over You
Album: Highway to hell


Intro RIFF A 4 times:
e------------------------------------|
b------------------------------------|
g-----------5------------------------|
d--5--------5-5----------------------|
a--5--------3-5----------------------|
e--3--3-5-6---3----------------------|


Intro Riff B 8 times:
e---------------------------------------|
b---------------------------------------|
g-------77------------------------------|
d----55----5-(5)-7-5--------------------|
a---------------------------------------|
e--5------------------------------------|

Out of my way I'm running high
e-------------------------------|
b-------------------------------|
g-------------------------------|
d-5-5-5-5-77-5------------------|
a-5-5-5-5-77-5------------------|
e-3-3-3-3-55-3------------------|

Take your chance with me and I'll give it a try
e-------------------------------|
b-------------------------------|
g-------------------------------|
d-5-5-5-5-77-5------------------|
a-5-5-5-5-77-5------------------|
e-3-3-3-3-55-3------------------|

Ain't no woman in the world I know
e-------------------------------|
b-------------------------------|
g-------------------------------|
d-5-5-5-5-77-5------------------|
a-5-5-5-5-77-5------------------|
e-3-3-3-3-55-3------------------|

'Cause I ain't looking for (an overflow?)
e-------------------------------|
b-------------------------------|
g----7---7----------------------|
d--7-7-7-7-77-------------------|
a--7-5-7-5-77-------------------|
e--5---5---55-------------------|

Oh baby I ain't got much
e-------------------------------|
b-------------------------------|
g-------------------------------|
d-5-5-5-5-77-5------------------|
a-5-5-5-5-77-5------------------|
e-3-3-3-3-55-3------------------|

Resistance to your touch
e-------------------------------|
b-------------------------------|
g-------------------------------|
d-5-5-5-5-77-5------------------|
a-5-5-5-5-77-5------------------|
e-3-3-3-3-55-3------------------|

Take off the high heels, let down your hair
e-------------------------------|
b-------------------------------|
g-------------------------------|
d-5-5-5-5-77-5------------------|
a-5-5-5-5-77-5------------------|
e-3-3-3-3-55-3------------------|

Paradise ain't far from there
e-------------------------------|
b-------------------------------|
g----7---7----------------------|
d--7-7-7-7-77-------------------|
a--7-5-7-5-77-------------------|
e--5---5---55-------------------|


I wanna walk all over you
I wanna walk all over you
e---------------------------------|
b---------------------------------|
g--------5------------------------|
d--------5-5----------------------|
a--------3-5----------------------|
e--3-5-6---3----------------------|


I wanna walk all over you
I wanna walk all over you
e---------------------------------|
b---------------------------------|
g--------5------------------------|
d--------5-5----------------------|
a--------3-5----------------------|
e--3-5-6---3----------------------|


Do anything you want me to, baby
I wanna walk all over you
e---------------------------------|
b---------------------------------|
g--------5------------------------|
d--------5-5----------------------|
a--------3-5----------------------|
e--3-5-6---3----------------------|


I wanna walk all over you

[ Tab from: http://www.guitartabs.cc/tabs/a/ac_dc/walk_all_over_you_tab_ver_3.html ]
RIFF C 2 times (In this part i'm not sure, but it's good!)
e----------------------------------------------------------------|
b------------------------------------------------------9~~--9~~--|
g--lot of-9-9-9-9----THEN--99-77-6--9b7----99-77-6---------------|
d----------------------------------------------------------------|
a----------------------------------------------------------------|
e----------------------------------------------------------------|

Reflections on the bedroom wall
e-------------------------------|
b-------------------------------|
g-------------------------------|
d-5-5-5-5-77-5------------------|
a-5-5-5-5-77-5------------------|
e-3-3-3-3-55-3------------------|
And there you thought you'd see it all
e-------------------------------|
b-------------------------------|
g-------------------------------|
d-5-5-5-5-77-5------------------|
a-5-5-5-5-77-5------------------|
e-3-3-3-3-55-3------------------|
We're rising, falling like the sea
e-------------------------------|
b-------------------------------|
g-------------------------------|
d-5-5-5-5-77-5------------------|
a-5-5-5-5-77-5------------------|
e-3-3-3-3-55-3------------------|
You're looking so good under me
e-------------------------------|
b-------------------------------|
g----7---7----------------------|
d--7-7-7-7-77-------------------|
a--7-5-7-5-77-------------------|
e--5---5---55-------------------|

I'm gonna walk all over you
I'm gonna walk all over you
e---------------------------------|
b---------------------------------|
g--------5------------------------|
d--------5-5----------------------|
a--------3-5----------------------|
e--3-5-6---3----------------------|

I'm gonna walk all over you
I'm gonna walk all over you
e---------------------------------|
b---------------------------------|
g--------5------------------------|
d--------5-5----------------------|
a--------3-5----------------------|
e--3-5-6---3----------------------|

Do anything you want me to
Walk all over you
e---------------------------------|
b---------------------------------|
g--------5------------------------|
d--------5-5----------------------|
a--------3-5----------------------|
e--3-5-6---3----------------------|
do to you I'm gonna walk all over you

Solo (Sorry, but this is too difficulty for me)

(Roaming, roaming, stayin' alive)
e-------------------------------|
b-------------------------------|
g-------------------------------|
d-5-5-5-5-77-5------------------|
a-5-5-5-5-77-5------------------|
e-3-3-3-3-55-3------------------|
(?) So (get off | gimme) the stage, I'm gonna steal the show
e-------------------------------|
b-------------------------------|
g-------------------------------|
d-5-5-5-5-77-5------------------|
a-5-5-5-5-77-5------------------|
e-3-3-3-3-55-3------------------|
(Leave off the (lace?) and turn off the light
e-------------------------------|
b-------------------------------|
g-------------------------------|
d-5-5-5-5-77-5------------------|
a-5-5-5-5-77-5------------------|
e-3-3-3-3-55-3------------------|
Tonight is gonna be the night
e-------------------------------|
b-------------------------------|
g----7---5----------------------|
d--7-7-7-5-77-------------------|
a--7-5-7-7-77-------------------|
e--5---5---55-------------------|
I'm gonna walk all over you
I'm gonna walk all over you
e---------------------------------|
b---------------------------------|
g--------5------------------------|
d--------5-5----------------------|
a--------3-5----------------------|
e--3-5-6---3----------------------|

I'm gonna walk all over you
I'm gonna walk all over you
e---------------------------------|
b---------------------------------|
g--------5------------------------|
d--------5-5----------------------|
a--------3-5----------------------|
e--3-5-6---3----------------------|

Do anything you want me to
Walk all over you
e---------------------------------|
b---------------------------------|
g--------5------------------------|
d--------5-5----------------------|
a--------3-5----------------------|
e--3-5-6---3----------------------|
do to you I'm gonna walk all over you
Comments