Ac Dc - Walk All Over You Chords & Tabs

 

Walk All Over You Chords & Tabs

Ac Dc Chords & Tabs

Version: 2 Type: Tab 0 ratings
1 star 2 stars 3 stars 4 stars 5 stars
comments

Walk All Over You Tab

----------------------------------------------------------------------------
			     Walk All Over You - AC/DC
----------------------------------------------------------------------------
Tabbed by: John Hoskinson
Email: jrhos32@yahoo.com

Tuning:standard

intro 4x (chourus)
e|--------------------------------------------------------------------------|
B|-----------------3--------3-----------------------------------------------|
G|-----------------0--------2--------2--------------------------------------|
D|--2--------------0--------0--------2--------------------------------------|
A|--2--------------------------------0--------------------------------------|
E|--0----------0-2-3--------------------------------------------------------|

double time feel
  -this same basic pattern 8x
e|--------------------------------------------------------------------------|
B|------3------3----------3----2--------------------------------------------|
G|------0------2-----2----2----2--------------------------------------------|
D|--2---0------0-----2----2----2--------------------------------------------|
A|--2----------------0----0----0--------------------------------------------|
E|--0---3-------------------------------------------------------------------|

verse-
1.outta my way i'm running high........3x
e|------------------------------3---3-3---3-3----3--2--2--2--2------2-------|
B|------------------------------3---3-3---3-3----3--3--3--3--3------3-------|
G|--1---------------------------0---0-0---0-0----0--2--2--2--2------2-------|
D|--2---------------------------0---0-0---0-0----0--0--0--0--0------0-------|
A|--2-----------------------------------------------------------------------|
E|--0---------------------------3---3-3---3-3----3--------------------------|
[ Tab from: http://www.guitartabs.cc/tabs/a/ac_dc/walk_all_over_you_tab_ver_2.html ]
end of verse:
cuz i ain't a looking for a womens love 1x (repeat verse again)
e|--------------------------------------------------------------------------|
B|---------------------------3-------3--------------------------------------|
G|-----------------------2---2---2---2---2--2-------------------------------|
D|--2--------------------2---0---2---0---2--2-------------------------------|
A|--2--------------------0-------0-------0--0-------------------------------|
E|--0-----------------------------------------------------------------------|

chourus 4x

bridge:
e|------0--0------0--0------0--0------0--0------0------0--------------------|
B|--3/5-------3/5-------3/5-------3/5-------3/5----3/5----------------------|
G|--------------------------------------------------------------------------|
D|--------------------------------------------------------------------------|
A|--------------------------------------------------------------------------|
E|--------------------------------------------------------------------------|
repeat the next two lines once
e|-------0--0--------------------------------------0-0-0-0-0-0--------------|
B|---3/5-------3----3-3------3---3----3-2-2-2--3/5---3---3-3----------------|
G|-------------0----0-2------2---2----2-2-2-2--------0---0-2----------------|
D|--------------------------------------------------------------------------|
A|--------------------------------------------------------------------------|
E|--------------------------------------------------------------------------|

e|---0-----------0--------0--0----------------------------------------------|
B|-------7-bu-9-----7bu8---------7------------------------------------------|
G|--------------------------------------------------------------------------|
D|--------------------------------------------------------------------------|
A|--------------------------------------------------------------------------|
E|--------------------------------------------------------------------------|

just solo outta the a penatonic scale like this
                                                        and so forth
e|-------------------------------------------------5---8---10--11---12------|
B|------------------------------------------5----8--------------------------|
G|-----------------------------5---7---8------------------------------------|
D|---------------------5---7------------------------------------------------|
A|---------5---6---7--------------------------------------------------------|
E|--5---8-------------------------------------------------------------------|

 /  - slide up
 bu - bend up
Comments