Ac Dc - Touch Too Much Chords & Tabs

 

Touch Too Much Chords & Tabs

Ac Dc Chords & Tabs

Version: 2 Type: Tab 0 ratings
1 star 2 stars 3 stars 4 stars 5 stars
comments

Touch Too Much Tab

   
-----------------------------------------------------------------------------
TOUCH TOO MUCH - AC/DC
-----------------------------------------------------------------------------

Tabbed by: Sean Buccos
E-mail: AcDc1087@aol.com

Tuning: Standard

NOTE: Palm muting is very light.

    Intro

e-|--------------------------------------------------|
B-|--------------------------------------------------|
G-|-9-----------------------9------------------------|
D-|-9-----------------------9------------------------|
A-|-7--7--7--7--7--7--7--7--7--7--7--7--7--7--7--7---|
E-|-0--0--0--0--0--0--0--0--0--0--0--0--0--0--0--0---|
    >  pm__  >  pm__  >  pm    >  pm__  >  pm >  pm


e-|--------------------------------------------------|
B-|--------------------------------------------------|
G-|-9--------9--------------9------------------------|
D-|-9--------9--------------9------------------------|
A-|-7--7--7--7--7--7--7--7--7--7--7--7--7--7--7--7---|
E-|-0--0--0--0--0--0--0--0--0--0--0--0--0--0--0--0---|
    >  pm__  >  pm__  >  pm    >  pm__  >  pm >  pm
    Verse

e-|--------------------------------------------------|
B-|-------------------------5------------------------|
G-|-9--------9--------------5------------------------|
D-|-9--------9--------------5--5--5--5--5--5--5------|
A-|-7--7--7--7--7--7--7--7--3--3--3--3--3--3--3--0---|
E-|-0--0--0--0--0--0--0--0---------------------------|
    >  pm__  >  pm__  >  pm >  pm__  >  pm_____


e-|-----------------------------------------------------------------|
B-|---------------------------------15--14--14--15--14--14--15------|
G-|-14------------------------------14--14--14--14--14--14--14------|
D-|-14--14--14--14--14--14--14--14--14--14--14--14--14--14--14------|
A-|--0---0---0---0---0---0---0---0---0---0---0---0---0---0---0--0---|
E-|-----------------------------------------------------------------|
     >  pm____   >   pm___________


e-|--------------------------------------------------|
B-|-------------------------5------------------------|
G-|-9--------9--------------5------------------------|
D-|-9--------9--------------5--5--5--5--5--5--5------|
A-|-7--7--7--7--7--7--7--7--3--3--3--3--3--3--3--0---|
E-|-0--0--0--0--0--0--0--0---------------------------|
    >  pm__  >  pm__  >  pm >  pm__  >  pm_____


e-|-----------------------------------------------------------------|
B-|---------------------------------15--14--14--15--14--14--15------|
G-|-14------------------------------14--14--14--14--14--14--14------|
D-|-14--14--14--14--14--14--14--14--14--14--14--14--14--14--14------|
A-|--0---0---0---0---0---0---0---0---0---0---0---0---0---0---0--0---|
E-|-----------------------------------------------------------------|
     >  pm____   >   pm___________


e-|--------------------------------------------------|
B-|--------------------------------------------------|
G-|-5--------------5-----5---------------------------|
D-|-5--5--5--5--5--5--5--5--5--5--5--5--5--5--5------|
A-|-3--3--3--3--3--3--3--3--3--3--3--3--3--3--3--0---|
E-|--------------------------------------------------|
    >  pm________  >  pm >  pm_________________


e-|--------------------------------------------------|
B-|--------------------------------------------------|
G-|-2--------------2-----2---------------------------|
D-|-2--2--2--2--2--2--2--2--2--2--2--2--2--2--2--2---|
A-|-0--0--0--0--0--0--0--0--0--0--0--0--0--0--0--0---|
E-|--------------------------------------------------|
    >  pm________  >  pm >  pm____________________


e-|--------------------------------------------------|
B-|--------------------------------------------------|
G-|-5-----5--------5-----5--------------5-----5------|
D-|-5--5--5--5--5--5--5--5--5--5--5--5--5--5--5--5---|
A-|-3--3--3--3--3--3--3--3--3--3--3--3--3--3--3--3---|
E-|--------------------------------------------------|
    >  pm >  pm__  >  pm >  pm________  >  pm >  pm


e-|--------------------------------------------------|
B-|--------------------------------------------------|
G-|-7-----7--------7-----7--------------7-----7------|
D-|-7-----7--------7--7--7-----------7--7-----7------|
A-|-5--5--5--------5--5--5-----------5--5-----5------|
E-|--------------------------------------------------|
    >  pm >        >  pm >              >     >
    Chorus

e-|-----------||-----------------------------------------------|
B-|-----------||o----------------------------------------------|
G-|-----------||---------------------------2----2----2--2--2---|
D-|-2--2----2-||o-5----5--5----5--5--5--5--2----2----2--2--2---|
A-|-2--2----2-||--5----5--5----5--5--5--5--0----0----0--0--0---|
E-|-0--0----0-||--3----3--3----3--3--3--3----------------------|


     ~~~~                                     3x
e-|---------------------|-----------------------||----------------------|
B-|------------3--------|----------------------o||----------------------|
G-|------------2--------|-----------------------||----------------------|
D-|------------0--------|-2--2--2----2--2--2---o||-2--2----2--5---------|
A-|-3----2--0-----------|-2--2--2----2--2--2----||-2--2----2--5---------|
E-|---------------------|-0--0--0----0--0--0----||-0--0----0--3---------|



e-|-------------------------2--------2--------2------|
B-|-------------------------3--------3--------3------|
G-|-2--2--2--2--2--2--2--2--2--2--2--2--2--2--2------|
D-|-2--2--2--2--2--2--2--2--0--2--2--0--2--2--0------|
A-|-0--0--0--0--0--0--0--0-----0--0-----0--0-----0---|
E-|--------------------------------------------------|



e-|--------------------------------------------------|
B-|--------------------------------------------------|
G-|-9-----9------------------------------------------|
D-|-9--9--9--9--9--9--9--9--9--9--9--9--9--9--9------|
A-|-7--7--7--7--7--7--7--7--7--7--7--7--7--7--7------|
E-|-0--0--0--0--0--0--0--0--0--0--0--0--0--0--0--0---|

    Verse

e-|--------------------------------------------------|
B-|-------------------------5------------------------|
G-|-9--------9--------------5------------------------|
D-|-9--------9--------------5--5--5--5--5--5--5------|
A-|-7--7--7--7--7--7--7--7--3--3--3--3--3--3--3--0---|
E-|-0--0--0--0--0--0--0--0---------------------------|
    >        >        >     >        >


e-|----------------------------2-----2-----------|
B-|-2--------------------------3-----3-----------|
G-|-2--2--2--2--2--2--2-----x--2--x--2--2--------|
D-|-2--2--2--2--2--2--2-----x--0--x--0--2--------|
A-|-0--0--0--0--0--0--0--0--x-----x-----0----0---|
E-|----------------------------------------------|
    >        >


e-|--------------------------------------------------|
B-|-------------------------5------------------------|
G-|-9--------9--------------5------------------------|
D-|-9--------9--------------5--5--5--5--5--5--5------|
A-|-7--7--7--7--7--7--7--7--3--3--3--3--3--3--3--0---|
E-|-0--0--0--0--0--0--0--0---------------------------|
    >        >        >     >        >


e-|----------------------------2-----2-----------|
B-|-2--------------------------3-----3-----------|
G-|-2--2--2--2--2--2--2-----x--2--x--2--2--------|
D-|-2--2--2--2--2--2--2-----x--0--x--0--2--------|
A-|-0--0--0--0--0--0--0--0--x-----x-----0----0---|
E-|----------------------------------------------|
    >        >


e-|--------------------------------------------------|
B-|--------------------------------------------------|
G-|-5--------------5-----5---------------------------|
D-|-5--5--5--5--5--5--5--5--5--5--5--5--5--5--5------|
A-|-3--3--3--3--3--3--3--3--3--3--3--3--3--3--3--0---|
E-|--------------------------------------------------|
    >              >     >


e-|--------------------------------------------------|
B-|--------------------------------------------------|
G-|-2--------------2-----2---------------------------|
D-|-2--2--2--2--2--2--2--2--2--2--2--2--2--2--2--2---|
A-|-0--0--0--0--0--0--0--0--0--0--0--0--0--0--0--0---|
E-|--------------------------------------------------|
    >              >     >


e-|--------------------------------------------------|
B-|--------------------------------------------------|
G-|-5-----5--------5-----5--------------5-----5------|
D-|-5--5--5--5--5--5--5--5--5--5--5--5--5--5--5--5---|
A-|-3--3--3--3--3--3--3--3--3--3--3--3--3--3--3--3---|
E-|--------------------------------------------------|
    >     >        >     >              >     >


e-|--------------------------------------------------|
B-|--------------------------------------------------|
G-|-7-----7--------7-----7--------------7-----7------|
D-|-7-----7--------7--7--7-----------7--7-----7------|
A-|-5--5--5--------5--5--5-----------5--5-----5------|
E-|--------------------------------------------------|
    >     >        >     >              >     >
    Chorus

e-|-----------||-----------------------------------------------|
B-|-----------||o----------------------------------------------|
G-|-----------||---------------------------2----2----2--2--2---|
D-|-2--2----2-||o-5----5--5----5--5--5--5--2----2----2--2--2---|
A-|-2--2----2-||--5----5--5----5--5--5--5--0----0----0--0--0---|
E-|-0--0----0-||--3----3--3----3--3--3--3----------------------|

[ Tab from: http://www.guitartabs.cc/tabs/a/ac_dc/touch_too_much_tab_ver_2.html ]
     ~~~~                                     3x
e-|---------------------|-----------------------||----------------------|
B-|------------3--------|----------------------o||----------------------|
G-|------------2--------|-----------------------||----------------------|
D-|------------0--------|-2--2--2----2--2--2---o||-2--2----2--5---------|
A-|-3----2--0-----------|-2--2--2----2--2--2----||-2--2----2--5---------|
E-|---------------------|-0--0--0----0--0--0----||-0--0----0--3---------|



e-|--------------------------------------------------|
B-|--------------------------------------------------|
G-|-9-----9------------------------------------------|
D-|-9--9--9--9--9--9--9--9--9--9--9--9--9--9--9------|
A-|-7--7--7--7--7--7--7--7--7--7--7--7--7--7--7------|
E-|-0--0--0--0--0--0--0--0--0--0--0--0--0--0--0--0---|

    Guitar Solo
      B                  B                B                B
e-|----------------12-----------12--12-----------12--12-----------12--12---|
B-|------------12---------------12--12-----------12--12-----------12--12---|
G-|-12^(14)------------12^(14)----------12^(14)----------12^(14)-----------|
D-|------------------------------------------------------------------------|
A-|------------------------------------------------------------------------|
E-|------------------------------------------------------------------------|


      B                B                B                B
e-|--------------12-----------12--12---------------12-----------12---|
B-|----------12---------------12--12-----------12---------------12---|
G-|-12^(14)----------12^(14)----------12^(14)----------12^(14)-------|
D-|------------------------------------------------------------------|
A-|------------------------------------------------------------------|
E-|------------------------------------------------------------------|


      B    B                ~~~~      ~~~~
e-|-14^(15)^(14)--12-----------------------|
B-|-14^(15)^(14)--12--14-------------------|
G-|-------------------14--12----14--12-----|
D-|----------------------------------------|
A-|----------------------------------------|
E-|----------------------------------------|


      B                B                  B                B
e-|----------12--12-------------12--12-----------12--12-----------12--12---|
B-|----------12--12--15^(17)------------15^(17)----------15^(17)-----------|
G-|-12^(14)----------------------------------------------------------------|
D-|------------------------------------------------------------------------|
A-|------------------------------------------------------------------------|
E-|------------------------------------------------------------------------|


      B                                                              ~~~~
e-|----------12--12----15--15--15--12--15--15--15--12--15--15--12--15-----|
B-|-15^(17)---------------------------------------------------------------|
G-|-----------------------------------------------------------------------|
D-|-----------------------------------------------------------------------|
A-|-----------------------------------------------------------------------|
E-|-----------------------------------------------------------------------|


          ~~~~                        ~~~~
e-|------------------------------------------------------------|
B-|------------------------------------------------------------|
G-|------------------------------------------------------------|
D-|-----------2-----------------4----5----2--------------------|
A-|-2---------0--------0-----0--2----3----0--2-----------------|
E-|-0----3----------------3------------------0-----------------|



e-||---------------------------|--------------------------|
B-||o--------------------------|--------------------------|
G-||---------------------------|--------------------------|
D-||o-2--2--2--2--2--2--2--5---|-5--5--5--5--5--5--5--5---|
A-||---------------------------|--------------------------|
E-||--0--0--0--0--0--0--0--3---|-3--3--3--3--3--3--3--3---|


                                                       4x
e-|--------------------------|---------------------------||
B-|--------------------------|--------------------------o||
G-|----------------------7---|-7--7--7--7--7--7--7--7----||
D-|--------------------------|--------------------------o||
A-|----------------------5---|-5--5--5--5--5--5--5--5----||
E-|-5--5--5--5--5--5--5------|---------------------------||


    Chorus

e-|-----------||--3----3--3----3--3--3--3----------------------|
B-|-----------||o-3----3--3----3--3--3--3----------------------|
G-|-----------||--0----0--0----0--0--0--0--2----2----2--2--2---|
D-|-2--2----2-||o-0----0--0----0--0--0--0--2----2----2--2--2---|
A-|-2--2----2-||---------------------------0----0----0--0--0---|
E-|-0--0----0-||--3----3--3----3--3--3--3----------------------|


     ~~~~                    repeat through solo
e-|------------2--------|-----------------------||
B-|------------3--------|----------------------o||
G-|------------2--------|-----------------------||
D-|------------0--------|-2--2--2----2--2--2---o||
A-|-3----2--0-----------|-2--2--2----2--2--2----||
E-|---------------------|-0--0--0----0--0--0----||

    Guitar Solo 2
           hold bend               hold bend
      B    ~~~~~~~~    B      B    ~~~~~~~~
e-|-14^(15)--------(15)^14--14^(15)--------(15)^14p12---|
B-|-----------------------------------------------------|
G-|-----------------------------------------------------|
D-|-----------------------------------------------------|
A-|-----------------------------------------------------|
E-|-----------------------------------------------------|


      B        B        B    ~~~~       B            B
e-|-15^(17)--15^(17)--15^(17)----\\\-----------22--22^(24)-----|
B-|-----------------------------------22^(24)------------------|
G-|------------------------------------------------------------|
D-|------------------------------------------------------------|
A-|------------------------------------------------------------|
E-|------------------------------------------------------------|


                    hold bend
      B        B    ~~~~~~~~    B         B
e-|-22^(24)--22^(24)--------(24)^22p19--22^(24)---|
B-|-----------------------------------------------|
G-|-----------------------------------------------|
D-|-----------------------------------------------|
A-|-----------------------------------------------|
E-|-----------------------------------------------|


        B        B        B        B
e-|-(24)^22--(24)^22--(24)^22--(24)^22-----|
B-|----------------------------------------|
G-|----------------------------------------|
D-|----------------------------------------|
A-|----------------------------------------|
E-|----------------------------------------|


                 ~~~~~~~~        ~~~~
e-|---------------------------------------------------------------------|
B-|-17-20--20--17--------20----20----17----20--20--17----20--20--17-----|
G-|---------------------------------------------------------------------|
D-|---------------------------------------------------------------------|
A-|---------------------------------------------------------------------|
E-|---------------------------------------------------------------------|



e-|----------------------------------------------------------|
B-|-20--20--17----20--20--17----20--20--17----20--20--17-----|
G-|----------------------------------------------------------|
D-|----------------------------------------------------------|
A-|----------------------------------------------------------|
E-|----------------------------------------------------------|



e-|------------22------22---------22-------------22-------------22---|
B-|-22^(24)--------22^(24)--------------22^(24)------22^(24)---------|
G-|------------------------------------------------------------------|
D-|------------------------------------------------------------------|
A-|------------------------------------------------------------------|
E-|------------------------------------------------------------------|



e-|--------------|
B-|-22^(24)\\\---|
G-|--------------|
D-|--------------|
A-|--------------|
E-|--------------|


                                                     3x
e-||----------------------------------------------------||
B-||o--------------------------------------------------o||
G-||--------------------------7--------7--------7-------||
D-||o-7--7--7--7--7--7--7--7--7--7--7--7--7--7--7--7---o||
A-||--7--7--7--7--7--7--7--7--5--7--7--5--7--7--5--7----||
E-||--5--5--5--5--5--5--5--5-----5--5-----5--5-----5----||



e-|--------------------------------------------------------|
B-|------------------3^(5)----3^(5)--3^(5)----3^(5)--------|
G-|----------------------------------------------------4---|
D-|-2--------------------------------------------------2---|
A-|-2--------------------------------------------------2---|
E-|-0--------------------------------------------------0---|


| /  slide up
| \  slide down
| h  hammer-on
| p  pull-off
| ^ bend
| ~  vibrato
| +  harmonic
| x  Mute note
=============================================================================
Comments